  0
SECTION
  2
HEADER
  9
$ACADVER
  1
AC1024
  9
$ACADMAINTVER
 70
     6
  9
$DWGCODEPAGE
  3
UNDEFINED
  9
$INSBASE
 10
0.0
 20
0.0
 30
0.0
  9
$EXTMIN
 10
1.000000000000000E+20
 20
1.000000000000000E+20
 30
1.000000000000000E+20
  9
$EXTMAX
 10
-1.000000000000000E+20
 20
-1.000000000000000E+20
 30
-1.000000000000000E+20
  9
$LIMMIN
 10
0.0
 20
0.0
  9
$LIMMAX
 10
12.0
 20
9.0
  9
$ORTHOMODE
 70
     0
  9
$REGENMODE
 70
     1
  9
$FILLMODE
 70
     1
  9
$QTEXTMODE
 70
     0
  9
$MIRRTEXT
 70
     1
  9
$LTSCALE
 40
1.0
  9
$ATTMODE
 70
     1
  9
$TEXTSIZE
 40
0.2
  9
$TRACEWID
 40
0.05
  9
$TEXTSTYLE
  7
Standard
  9
$CLAYER
  8
0
  9
$CELTYPE
  6
ByLayer
  9
$CECOLOR
 62
   256
  9
$CELTSCALE
 40
1.0
  9
$DISPSILH
 70
     0
  9
$DIMSCALE
 40
1.0
  9
$DIMASZ
 40
0.18
  9
$DIMEXO
 40
0.0625
  9
$DIMDLI
 40
0.38
  9
$DIMRND
 40
0.0
  9
$DIMDLE
 40
0.0
  9
$DIMEXE
 40
0.18
  9
$DIMTP
 40
0.0
  9
$DIMTM
 40
0.0
  9
$DIMTXT
 40
0.18
  9
$DIMCEN
 40
0.09
  9
$DIMTSZ
 40
0.0
  9
$DIMTOL
 70
     0
  9
$DIMLIM
 70
     0
  9
$DIMTIH
 70
     1
  9
$DIMTOH
 70
     1
  9
$DIMSE1
 70
     0
  9
$DIMSE2
 70
     0
  9
$DIMTAD
 70
     0
  9
$DIMZIN
 70
     0
  9
$DIMBLK
  1

  9
$DIMASO
 70
     1
  9
$DIMSHO
 70
     1
  9
$DIMPOST
  1

  9
$DIMAPOST
  1

  9
$DIMALT
 70
     0
  9
$DIMALTD
 70
     2
  9
$DIMALTF
 40
25.4
  9
$DIMLFAC
 40
1.0
  9
$DIMTOFL
 70
     0
  9
$DIMTVP
 40
0.0
  9
$DIMTIX
 70
     0
  9
$DIMSOXD
 70
     0
  9
$DIMSAH
 70
     0
  9
$DIMBLK1
  1

  9
$DIMBLK2
  1

  9
$DIMSTYLE
  2
Standard
  9
$DIMCLRD
 70
     0
  9
$DIMCLRE
 70
     0
  9
$DIMCLRT
 70
     0
  9
$DIMTFAC
 40
1.0
  9
$DIMGAP
 40
0.09
  9
$DIMJUST
 70
     0
  9
$DIMSD1
 70
     0
  9
$DIMSD2
 70
     0
  9
$DIMTOLJ
 70
     1
  9
$DIMTZIN
 70
     0
  9
$DIMALTZ
 70
     0
  9
$DIMALTTZ
 70
     0
  9
$DIMUPT
 70
     0
  9
$DIMDEC
 70
     4
  9
$DIMTDEC
 70
     4
  9
$DIMALTU
 70
     2
  9
$DIMALTTD
 70
     2
  9
$DIMTXSTY
  7
Standard
  9
$DIMAUNIT
 70
     0
  9
$DIMADEC
 70
     0
  9
$DIMALTRND
 40
0.0
  9
$DIMAZIN
 70
     0
  9
$DIMDSEP
 70
    46
  9
$DIMATFIT
 70
     3
  9
$DIMFRAC
 70
     0
  9
$DIMLDRBLK
  1

  9
$DIMLUNIT
 70
     2
  9
$DIMLWD
 70
    -2
  9
$DIMLWE
 70
    -2
  9
$DIMTMOVE
 70
     0
  9
$DIMFXL
 40
1.0
  9
$DIMFXLON
 70
     0
  9
$DIMJOGANG
 40
0.7853981633974483
  9
$DIMTFILL
 70
     0
  9
$DIMTFILLCLR
 70
     0
  9
$DIMARCSYM
 70
     0
  9
$DIMLTYPE
  6

  9
$DIMLTEX1
  6

  9
$DIMLTEX2
  6

  9
$DIMTXTDIRECTION
 70
     0
  9
$LUNITS
 70
     2
  9
$LUPREC
 70
     4
  9
$SKETCHINC
 40
0.1
  9
$FILLETRAD
 40
0.5
  9
$AUNITS
 70
     0
  9
$AUPREC
 70
     0
  9
$MENU
  1
.
  9
$ELEVATION
 40
0.0
  9
$PELEVATION
 40
0.0
  9
$THICKNESS
 40
0.0
  9
$LIMCHECK
 70
     0
  9
$CHAMFERA
 40
0.5
  9
$CHAMFERB
 40
0.5
  9
$CHAMFERC
 40
1.0
  9
$CHAMFERD
 40
0.0
  9
$SKPOLY
 70
     0
  9
$TDCREATE
 40
2458253.813148148
  9
$TDUCREATE
 40
2458254.063148148
  9
$TDUPDATE
 40
2458253.813148148
  9
$TDUUPDATE
 40
2458254.063148148
  9
$TDINDWG
 40
0.0000000116
  9
$TDUSRTIMER
 40
0.0000000116
  9
$USRTIMER
 70
     1
  9
$ANGBASE
 50
0.0
  9
$ANGDIR
 70
     0
  9
$PDMODE
 70
     0
  9
$PDSIZE
 40
0.0
  9
$PLINEWID
 40
0.0
  9
$SPLFRAME
 70
     0
  9
$SPLINETYPE
 70
     6
  9
$SPLINESEGS
 70
     8
  9
$HANDSEED
  5
6A
  9
$SURFTAB1
 70
     6
  9
$SURFTAB2
 70
     6
  9
$SURFTYPE
 70
     6
  9
$SURFU
 70
     6
  9
$SURFV
 70
     6
  9
$UCSBASE
  2

  9
$UCSNAME
  2

  9
$UCSORG
 10
0.0
 20
0.0
 30
0.0
  9
$UCSXDIR
 10
1.0
 20
0.0
 30
0.0
  9
$UCSYDIR
 10
0.0
 20
1.0
 30
0.0
  9
$UCSORTHOREF
  2

  9
$UCSORTHOVIEW
 70
     0
  9
$UCSORGTOP
 10
0.0
 20
0.0
 30
0.0
  9
$UCSORGBOTTOM
 10
0.0
 20
0.0
 30
0.0
  9
$UCSORGLEFT
 10
0.0
 20
0.0
 30
0.0
  9
$UCSORGRIGHT
 10
0.0
 20
0.0
 30
0.0
  9
$UCSORGFRONT
 10
0.0
 20
0.0
 30
0.0
  9
$UCSORGBACK
 10
0.0
 20
0.0
 30
0.0
  9
$PUCSBASE
  2

  9
$PUCSNAME
  2

  9
$PUCSORG
 10
0.0
 20
0.0
 30
0.0
  9
$PUCSXDIR
 10
1.0
 20
0.0
 30
0.0
  9
$PUCSYDIR
 10
0.0
 20
1.0
 30
0.0
  9
$PUCSORTHOREF
  2

  9
$PUCSORTHOVIEW
 70
     0
  9
$PUCSORGTOP
 10
0.0
 20
0.0
 30
0.0
  9
$PUCSORGBOTTOM
 10
0.0
 20
0.0
 30
0.0
  9
$PUCSORGLEFT
 10
0.0
 20
0.0
 30
0.0
  9
$PUCSORGRIGHT
 10
0.0
 20
0.0
 30
0.0
  9
$PUCSORGFRONT
 10
0.0
 20
0.0
 30
0.0
  9
$PUCSORGBACK
 10
0.0
 20
0.0
 30
0.0
  9
$USERI1
 70
     0
  9
$USERI2
 70
     0
  9
$USERI3
 70
     0
  9
$USERI4
 70
     0
  9
$USERI5
 70
     0
  9
$USERR1
 40
0.0
  9
$USERR2
 40
0.0
  9
$USERR3
 40
0.0
  9
$USERR4
 40
0.0
  9
$USERR5
 40
0.0
  9
$WORLDVIEW
 70
     1
  9
$SHADEDGE
 70
     3
  9
$SHADEDIF
 70
    70
  9
$TILEMODE
 70
     1
  9
$MAXACTVP
 70
    64
  9
$PINSBASE
 10
0.0
 20
0.0
 30
0.0
  9
$PLIMCHECK
 70
     0
  9
$PEXTMIN
 10
1.000000000000000E+20
 20
1.000000000000000E+20
 30
1.000000000000000E+20
  9
$PEXTMAX
 10
-1.000000000000000E+20
 20
-1.000000000000000E+20
 30
-1.000000000000000E+20
  9
$PLIMMIN
 10
0.0
 20
0.0
  9
$PLIMMAX
 10
12.0
 20
9.0
  9
$UNITMODE
 70
     0
  9
$VISRETAIN
 70
     1
  9
$PLINEGEN
 70
     0
  9
$PSLTSCALE
 70
     1
  9
$TREEDEPTH
 70
  3020
  9
$CMLSTYLE
  2
Standard
  9
$CMLJUST
 70
     0
  9
$CMLSCALE
 40
1.0
  9
$PROXYGRAPHICS
 70
     1
  9
$MEASUREMENT
 70
     0
  9
$CELWEIGHT
370
    -1
  9
$ENDCAPS
280
     0
  9
$JOINSTYLE
280
     0
  9
$LWDISPLAY
290
     1
  9
$INSUNITS
 70
     1
  9
$HYPERLINKBASE
  1

  9
$STYLESHEET
  1

  9
$XEDIT
290
     1
  9
$CEPSNTYPE
380
     0
  9
$PSTYLEMODE
290
     1
  9
$FINGERPRINTGUID
  2
{BEDE1A83-08C6-E6D5-E687-A11E9DC7EC09}
  9
$VERSIONGUID
  2
{FAEB1C32-E019-11D5-929B-00C0DF256EC4}
  9
$EXTNAMES
290
     1
  9
$PSVPSCALE
 40
0.0
  9
$OLESTARTUP
290
     0
  9
$SORTENTS
280
   127
  9
$INDEXCTL
280
     0
  9
$HIDETEXT
280
     1
  9
$XCLIPFRAME
280
     2
  9
$HALOGAP
280
     0
  9
$OBSCOLOR
 70
   257
  9
$OBSLTYPE
280
     0
  9
$INTERSECTIONDISPLAY
280
     0
  9
$INTERSECTIONCOLOR
 70
   257
  9
$DIMASSOC
280
     2
  9
$PROJECTNAME
  1

  9
$CAMERADISPLAY
290
     0
  9
$LENSLENGTH
 40
50.0
  9
$CAMERAHEIGHT
 40
0.0
  9
$STEPSPERSEC
 40
2.0
  9
$STEPSIZE
 40
6.0
  9
$3DDWFPREC
 40
2.0
  9
$PSOLWIDTH
 40
0.25
  9
$PSOLHEIGHT
 40
4.0
  9
$LOFTANG1
 40
1.570796326794897
  9
$LOFTANG2
 40
1.570796326794897
  9
$LOFTMAG1
 40
0.0
  9
$LOFTMAG2
 40
0.0
  9
$LOFTPARAM
 70
     7
  9
$LOFTNORMALS
280
     1
  9
$LATITUDE
 40
37.795
  9
$LONGITUDE
 40
-122.394
  9
$NORTHDIRECTION
 40
0.0
  9
$TIMEZONE
 70
 -8000
  9
$LIGHTGLYPHDISPLAY
280
     1
  9
$TILEMODELIGHTSYNCH
280
     1
  9
$CMATERIAL
347
3C
  9
$SOLIDHIST
280
     1
  9
$SHOWHIST
280
     1
  9
$DWFFRAME
280
     2
  9
$DGNFRAME
280
     2
  9
$REALWORLDSCALE
290
     1
  9
$INTERFERECOLOR
 62
   256
  9
$CSHADOW
280
     0
  9
$SHADOWPLANELOCATION
 40
0.0
  0
ENDSEC
  0
SECTION
  2
CLASSES
  0
CLASS
  1
ACDBDICTIONARYWDFLT
  2
AcDbDictionaryWithDefault
  3
ObjectDBX Classes
 90
        0
 91
        4
280
     0
281
     0
  0
CLASS
  1
VISUALSTYLE
  2
AcDbVisualStyle
  3
ObjectDBX Classes
 90
     4095
 91
        4
280
     0
281
     0
  0
CLASS
  1
MATERIAL
  2
AcDbMaterial
  3
ObjectDBX Classes
 90
     1153
 91
        4
280
     0
281
     0
  0
CLASS
  1
SUN
  2
AcDbSun
  3
SCENEOE
 90
     1024
 91
        4
280
     0
281
     0
  0
ENDSEC
  0
SECTION
  2
TABLES
  0
TABLE
  2
VPORT
  5
8
330
0
100
AcDbSymbolTable
 70
     1
  0
VPORT
  5
29
330
8
100
AcDbSymbolTableRecord
100
AcDbViewportTableRecord
  2
*Active
 70
     0
 10
0.0
 20
0.0
 11
1.0
 21
1.0
 12
0.0
 22
0.0
 13
0.0
 23
0.0
 14
0.5
 24
0.5
 15
0.5
 25
0.5
 16
0.0
 26
0.0
 36
1.0
 17
5.0
 27
-1.5
 37
0.0
 40
3.0
 41
2.916666666666667
 42
50.0
 43
0.0
 44
0.0
 50
0.0
 51
0.0
 71
     0
 72
   100
 73
     1
 74
     3
 75
     0
 76
     0
 77
     0
 78
     0
281
     0
 65
     1
110
0.0
120
0.0
130
0.0
111
1.0
121
0.0
131
0.0
112
0.0
122
1.0
132
0.0
 79
     0
146
0.0
 60
     3
 61
     5
292
     1
282
     1
141
0.0
142
0.0
 63
   250
361
3F
  0
ENDTAB
  0
TABLE
  2
LTYPE
  5
5
330
0
100
AcDbSymbolTable
 70
     1
  0
LTYPE
  5
14
330
5
100
AcDbSymbolTableRecord
100
AcDbLinetypeTableRecord
  2
ByBlock
 70
     0
  3

 72
    65
 73
     0
 40
0.0
  0
LTYPE
  5
15
330
5
100
AcDbSymbolTableRecord
100
AcDbLinetypeTableRecord
  2
ByLayer
 70
     0
  3

 72
    65
 73
     0
 40
0.0
  0
LTYPE
  5
16
330
5
100
AcDbSymbolTableRecord
100
AcDbLinetypeTableRecord
  2
Continuous
 70
     0
  3
Solid line
 72
    65
 73
     0
 40
0.0
  0
ENDTAB
  0
TABLE
  2
LAYER
  5
2
330
0
100
AcDbSymbolTable
 70
     4
  0
LAYER
  5
10
330
2
100
AcDbSymbolTableRecord
100
AcDbLayerTableRecord
  2
0
 70
     0
 62
     7
  6
Continuous
370
    -3
390
F
347
3E
  0
LAYER
  5
40
330
2
100
AcDbSymbolTableRecord
100
AcDbLayerTableRecord
  2
Layer 1
 70
     1
 62
     7
  6
Continuous
370
    -3
390
F
347
3E
  0
LAYER
  5
41
330
2
100
AcDbSymbolTableRecord
100
AcDbLayerTableRecord
  2
Layer 3
 70
     0
 62
     7
  6
Continuous
370
    -3
390
F
347
3E
  0
LAYER
  5
67
330
2
100
AcDbSymbolTableRecord
100
AcDbLayerTableRecord
  2
SC SIL UUID_f948785b-8b9e-463f-9dfe-b5d06f27510b CRC_1473995389
 70
     4
 62
     7
  6
Continuous
370
    -3
390
F
347
3E
  0
ENDTAB
  0
TABLE
  2
STYLE
  5
3
330
0
100
AcDbSymbolTable
 70
     1
  0
STYLE
  5
11
330
3
100
AcDbSymbolTableRecord
100
AcDbTextStyleTableRecord
  2
Standard
 70
     0
 40
0.0
 41
1.0
 50
0.0
 71
     0
 42
0.2
  3
txt
  4

  0
ENDTAB
  0
TABLE
  2
VIEW
  5
6
330
0
100
AcDbSymbolTable
 70
     0
  0
ENDTAB
  0
TABLE
  2
UCS
  5
7
330
0
100
AcDbSymbolTable
 70
     0
  0
ENDTAB
  0
TABLE
  2
APPID
  5
9
330
0
100
AcDbSymbolTable
 70
     1
  0
APPID
  5
12
330
9
100
AcDbSymbolTableRecord
100
AcDbRegAppTableRecord
  2
ACAD
 70
     0
  0
ENDTAB
  0
TABLE
  2
DIMSTYLE
  5
A
330
0
100
AcDbSymbolTable
 70
     1
100
AcDbDimStyleTable
  0
DIMSTYLE
105
27
330
A
100
AcDbSymbolTableRecord
100
AcDbDimStyleTableRecord
  2
Standard
 70
     0
178
     0
340
11
  0
ENDTAB
  0
TABLE
  2
BLOCK_RECORD
  5
1
330
0
100
AcDbSymbolTable
 70
     2
  0
BLOCK_RECORD
  5
1F
330
1
100
AcDbSymbolTableRecord
100
AcDbBlockTableRecord
  2
*Model_Space
340
22
 70
     0
280
     1
281
     0
  0
BLOCK_RECORD
  5
1B
330
1
100
AcDbSymbolTableRecord
100
AcDbBlockTableRecord
  2
*Paper_Space
340
1E
 70
     0
280
     1
281
     0
  0
BLOCK_RECORD
  5
23
330
1
100
AcDbSymbolTableRecord
100
AcDbBlockTableRecord
  2
*Paper_Space0
340
26
 70
     0
280
     1
281
     0
  0
BLOCK_RECORD
  5
42
330
1
100
AcDbSymbolTableRecord
100
AcDbBlockTableRecord
  2
block 2
340
0
102
{BLKREFS
331
43
102
}
 70
     0
280
     1
281
     0
  0
ENDTAB
  0
ENDSEC
  0
SECTION
  2
BLOCKS
  0
BLOCK
  5
20
330
1F
100
AcDbEntity
  8
0
100
AcDbBlockBegin
  2
*Model_Space
 70
     0
 10
0.0
 20
0.0
 30
0.0
  3
*Model_Space
  1

  0
ENDBLK
  5
21
330
1F
100
AcDbEntity
  8
0
100
AcDbBlockEnd
  0
BLOCK
  5
1C
330
1B
100
AcDbEntity
 67
     1
  8
0
100
AcDbBlockBegin
  2
*Paper_Space
 70
     0
 10
0.0
 20
0.0
 30
0.0
  3
*Paper_Space
  1

  0
ENDBLK
  5
1D
330
1B
100
AcDbEntity
 67
     1
  8
0
100
AcDbBlockEnd
  0
BLOCK
  5
24
330
23
100
AcDbEntity
  8
0
100
AcDbBlockBegin
  2
*Paper_Space0
 70
     0
 10
0.0
 20
0.0
 30
0.0
  3
*Paper_Space0
  1

  0
ENDBLK
  5
25
330
23
100
AcDbEntity
  8
0
100
AcDbBlockEnd
  0
BLOCK
  5
44
330
42
100
AcDbEntity
  8
0
100
AcDbBlockBegin
  2
block 2
 70
     0
 10
0.0
 20
0.0
 30
0.0
  3
block 2
  1

  0
SPLINE
  5
46
330
42
100
AcDbEntity
  8
Layer 3
 62
   179
420
  2301728
370
    35
100
AcDbSpline
210
0.0
220
0.0
230
1.0
 70
    11
 71
     3
 72
    71
 73
    67
 74
     0
 42
0.0000000001
 43
0.0000000001
 12
1.0
 22
0.0
 32
0.0
 13
1.0
 23
0.0
 33
0.0
 40
0.0
 40
0.0
 40
0.0
 40
0.0
 40
1.0
 40
1.0
 40
1.0
 40
2.0
 40
2.0
 40
2.0
 40
3.0
 40
3.0
 40
3.0
 40
4.0
 40
4.0
 40
4.0
 40
5.0
 40
5.0
 40
5.0
 40
6.0
 40
6.0
 40
6.0
 40
7.0
 40
7.0
 40
7.0
 40
8.0
 40
8.0
 40
8.0
 40
9.0
 40
9.0
 40
9.0
 40
10.0
 40
10.0
 40
10.0
 40
11.0
 40
11.0
 40
11.0
 40
12.0
 40
12.0
 40
12.0
 40
13.0
 40
13.0
 40
13.0
 40
14.0
 40
14.0
 40
14.0
 40
15.0
 40
15.0
 40
15.0
 40
16.0
 40
16.0
 40
16.0
 40
17.0
 40
17.0
 40
17.0
 40
18.0
 40
18.0
 40
18.0
 40
19.0
 40
19.0
 40
19.0
 40
20.0
 40
20.0
 40
20.0
 40
21.0
 40
21.0
 40
21.0
 40
22.0
 40
22.0
 40
22.0
 40
22.0
 10
8.36886935763889
 20
-0.9244791666666666
 30
0.0
 10
8.36886935763889
 20
-1.053487141927083
 30
0.0
 10
8.4578857421875
 20
-1.210503472222222
 30
0.0
 10
8.56789822048611
 20
-1.210503472222222
 30
0.0
 10
8.62790256076389
 20
-1.210503472222222
 30
0.0
 10
8.685899522569445
 20
-1.204501681857639
 30
0.0
 10
8.685899522569445
 20
-1.141499837239583
 30
0.0
 10
8.685899522569445
 20
-1.124498155381944
 30
0.0
 10
8.68191189236111
 20
-1.103495279947917
 30
0.0
 10
8.672905815972221
 20
-1.0784912109375
 30
0.0
 10
8.65390353732639
 20
-1.1094970703125
 30
0.0
 10
8.61990017361111
 20
-1.114495171440972
 30
0.0
 10
8.605902777777777
 20
-1.114495171440972
 30
0.0
 10
8.550889756944445
 20
-1.114495171440972
 30
0.0
 10
8.506890190972221
 20
-1.015489366319444
 30
0.0
 10
8.506890190972221
 20
-0.93048095703125
 30
0.0
 10
8.506890190972221
 20
-0.8654717339409722
 30
0.0
 10
8.531901041666666
 20
-0.8074679904513888
 30
0.0
 10
8.597900390625
 20
-0.8074679904513888
 30
0.0
 10
8.610894097222221
 20
-0.8074679904513888
 30
0.0
 10
8.62990993923611
 20
-0.8084716796875
 30
0.0
 10
8.647894965277777
 20
-0.8104654947916666
 30
0.0
 10
8.647894965277777
 20
-0.8104654947916666
 30
0.0
 10
8.729899088541666
 20
-1.193501790364583
 30
0.0
 10
8.729899088541666
 20
-1.193501790364583
 30
0.0
 10
8.729899088541666
 20
-1.193501790364583
 30
0.0
 10
8.873914930555555
 20
-1.193501790364583
 30
0.0
 10
8.873914930555555
 20
-1.193501790364583
 30
0.0
 10
8.873914930555555
 20
-1.193501790364583
 30
0.0
 10
8.737901475694445
 20
-0.5574476453993055
 30
0.0
 10
8.737901475694445
 20
-0.5574476453993055
 30
0.0
 10
8.737901475694445
 20
-0.5574476453993055
 30
0.0
 10
8.589898003472221
 20
-0.5374484592013888
 30
0.0
 10
8.589898003472221
 20
-0.5374484592013888
 30
0.0
 10
8.589898003472221
 20
-0.5374484592013888
 30
0.0
 10
8.637898763020832
 20
-0.7594672309027778
 30
0.0
 10
8.637898763020832
 20
-0.7594672309027778
 30
0.0
 10
8.637898763020832
 20
-0.7594672309027778
 30
0.0
 10
8.630900065104166
 20
-0.7594672309027778
 30
0.0
 10
8.630900065104166
 20
-0.7594672309027778
 30
0.0
 10
8.547892252604166
 20
-0.7594672309027778
 30
0.0
 10
8.488878038194445
 20
-0.6704576280381944
 30
0.0
 10
8.488878038194445
 20
-0.594448513454861
 30
0.0
 10
8.488878038194445
 20
-0.5384453667534722
 30
0.0
 10
8.520887586805555
 20
-0.48944091796875
 30
0.0
 10
8.59890407986111
 20
-0.48944091796875
 30
0.0
 10
8.760904947916666
 20
-0.48944091796875
 30
0.0
 10
8.868923387063255
 20
-0.5804511176215278
 30
0.0
 10
8.868923387063255
 20
-0.7324625651041666
 30
0.0
 10
8.868923387063255
 20
-0.7834676106770833
 30
0.0
 10
8.855916341145832
 20
-0.791469997829861
 30
0.0
 10
8.854926215277777
 20
-0.8004692925347222
 30
0.0
 10
8.923923068576388
 20
-0.8004692925347222
 30
0.0
 10
8.961927625868055
 20
-0.7754652235243055
 30
0.0
 10
8.961927625868055
 20
-0.703457302517361
 30
0.0
 10
8.961927625868055
 20
-0.5704481336805555
 30
0.0
 10
8.777913411458332
 20
-0.4434339735243055
 30
0.0
 10
8.610894097222221
 20
-0.4434339735243055
 30
0.0
 10
8.45388454861111
 20
-0.4434339735243055
 30
0.0
 10
8.383870442708332
 20
-0.5214436848958333
 30
0.0
 10
8.383870442708332
 20
-0.6034478081597222
 30
0.0
 10
8.383870442708332
 20
-0.6624552408854166
 30
0.0
 10
8.419881184895832
 20
-0.7244601779513888
 30
0.0
 10
8.48388671875
 20
-0.7614610460069444
 30
0.0
 10
8.40188259548611
 20
-0.7774658203125
 30
0.0
 10
8.36886935763889
 20
-0.8464694552951388
 30
0.0
 10
8.36886935763889
 20
-0.9244791666666666
 30
0.0
  0
SPLINE
  5
47
330
42
100
AcDbEntity
  8
Layer 3
 62
   179
420
  2301728
370
    35
100
AcDbSpline
210
0.0
220
0.0
230
1.0
 70
    11
 71
     3
 72
    29
 73
    25
 74
     0
 42
0.0000000001
 43
0.0000000001
 12
1.0
 22
0.0
 32
0.0
 13
1.0
 23
0.0
 33
0.0
 40
0.0
 40
0.0
 40
0.0
 40
0.0
 40
1.0
 40
1.0
 40
1.0
 40
2.0
 40
2.0
 40
2.0
 40
3.0
 40
3.0
 40
3.0
 40
4.0
 40
4.0
 40
4.0
 40
5.0
 40
5.0
 40
5.0
 40
6.0
 40
6.0
 40
6.0
 40
7.0
 40
7.0
 40
7.0
 40
8.0
 40
8.0
 40
8.0
 40
8.0
 10
8.22092013888889
 20
-0.9924858940972222
 30
0.0
 10
8.22292751736111
 20
-1.00848388671875
 30
0.0
 10
8.223931206597221
 20
-1.023484971788194
 30
0.0
 10
8.223931206597221
 20
-1.035488552517361
 30
0.0
 10
8.223931206597221
 20
-1.101494683159722
 30
0.0
 10
8.19091796875
 20
-1.121493869357639
 30
0.0
 10
8.151909516287661
 20
-1.121493869357639
 30
0.0
 10
8.104912651909721
 20
-1.121493869357639
 30
0.0
 10
8.06491427951389
 20
-1.094495985243056
 30
0.0
 10
8.02389865451389
 20
-1.057488335503472
 30
0.0
 10
8.02389865451389
 20
-1.165500217013889
 30
0.0
 10
8.110921223958332
 20
-1.193501790364583
 30
0.0
 10
8.210923936631945
 20
-1.193501790364583
 30
0.0
 10
8.306939019097221
 20
-1.193501790364583
 30
0.0
 10
8.358940972222221
 20
-1.120496961805556
 30
0.0
 10
8.358940972222221
 20
-1.03448486328125
 30
0.0
 10
8.358940972222221
 20
-0.9074774848090277
 30
0.0
 10
8.304931640625
 20
-0.6844550238715278
 30
0.0
 10
8.122911241319445
 20
-0.6844550238715278
 30
0.0
 10
8.040907118055555
 20
-0.6844550238715278
 30
0.0
 10
7.994900173611111
 20
-0.7184583875868055
 30
0.0
 10
7.994900173611111
 20
-0.7884657118055555
 30
0.0
 10
7.994900173611111
 20
-0.9104749891493055
 30
0.0
 10
8.125922309027777
 20
-0.9804823133680555
 30
0.0
 10
8.22092013888889
 20
-0.9924858940972222
 30
0.0
  0
SPLINE
  5
48
330
42
100
AcDbEntity
  8
Layer 3
 62
   179
420
  2301728
370
    35
100
AcDbSpline
210
0.0
220
0.0
230
1.0
 70
    11
 71
     3
 72
    14
 73
    10
 74
     0
 42
0.0000000001
 43
0.0000000001
 12
1.0
 22
0.0
 32
0.0
 13
1.0
 23
0.0
 33
0.0
 40
0.0
 40
0.0
 40
0.0
 40
0.0
 40
1.0
 40
1.0
 40
1.0
 40
2.0
 40
2.0
 40
2.0
 40
3.0
 40
3.0
 40
3.0
 40
3.0
 10
8.089911566840277
 20
-0.7374606662326388
 30
0.0
 10
8.145914713541666
 20
-0.7374606662326388
 30
0.0
 10
8.19192165798611
 20
-0.8504706488715277
 30
0.0
 10
8.21291775173611
 20
-0.9444783528645833
 30
0.0
 10
8.120917426215277
 20
-0.9434814453125
 30
0.0
 10
8.055908203125
 20
-0.8644748263888888
 30
0.0
 10
8.05490451388889
 20
-0.7934705946180555
 30
0.0
 10
8.05490451388889
 20
-0.7724677191840278
 30
0.0
 10
8.05990939670139
 20
-0.7374606662326388
 30
0.0
 10
8.089911566840277
 20
-0.7374606662326388
 30
0.0
  0
SPLINE
  5
49
330
42
100
AcDbEntity
  8
Layer 3
 62
   179
420
  2301728
370
    35
100
AcDbSpline
210
0.0
220
0.0
230
1.0
 70
    11
 71
     3
 72
   200
 73
   196
 74
     0
 42
0.0000000001
 43
0.0000000001
 12
1.0
 22
0.0
 32
0.0
 13
1.0
 23
0.0
 33
0.0
 40
0.0
 40
0.0
 40
0.0
 40
0.0
 40
1.0
 40
1.0
 40
1.0
 40
2.0
 40
2.0
 40
2.0
 40
3.0
 40
3.0
 40
3.0
 40
4.0
 40
4.0
 40
4.0
 40
5.0
 40
5.0
 40
5.0
 40
6.0
 40
6.0
 40
6.0
 40
7.0
 40
7.0
 40
7.0
 40
8.0
 40
8.0
 40
8.0
 40
9.0
 40
9.0
 40
9.0
 40
10.0
 40
10.0
 40
10.0
 40
11.0
 40
11.0
 40
11.0
 40
12.0
 40
12.0
 40
12.0
 40
13.0
 40
13.0
 40
13.0
 40
14.0
 40
14.0
 40
14.0
 40
15.0
 40
15.0
 40
15.0
 40
16.0
 40
16.0
 40
16.0
 40
17.0
 40
17.0
 40
17.0
 40
18.0
 40
18.0
 40
18.0
 40
19.0
 40
19.0
 40
19.0
 40
20.0
 40
20.0
 40
20.0
 40
21.0
 40
21.0
 40
21.0
 40
22.0
 40
22.0
 40
22.0
 40
23.0
 40
23.0
 40
23.0
 40
24.0
 40
24.0
 40
24.0
 40
25.0
 40
25.0
 40
25.0
 40
26.0
 40
26.0
 40
26.0
 40
27.0
 40
27.0
 40
27.0
 40
28.0
 40
28.0
 40
28.0
 40
29.0
 40
29.0
 40
29.0
 40
30.0
 40
30.0
 40
30.0
 40
31.0
 40
31.0
 40
31.0
 40
32.0
 40
32.0
 40
32.0
 40
33.0
 40
33.0
 40
33.0
 40
34.0
 40
34.0
 40
34.0
 40
35.0
 40
35.0
 40
35.0
 40
36.0
 40
36.0
 40
36.0
 40
37.0
 40
37.0
 40
37.0
 40
38.0
 40
38.0
 40
38.0
 40
39.0
 40
39.0
 40
39.0
 40
40.0
 40
40.0
 40
40.0
 40
41.0
 40
41.0
 40
41.0
 40
42.0
 40
42.0
 40
42.0
 40
43.0
 40
43.0
 40
43.0
 40
44.0
 40
44.0
 40
44.0
 40
45.0
 40
45.0
 40
45.0
 40
46.0
 40
46.0
 40
46.0
 40
47.0
 40
47.0
 40
47.0
 40
48.0
 40
48.0
 40
48.0
 40
49.0
 40
49.0
 40
49.0
 40
50.0
 40
50.0
 40
50.0
 40
51.0
 40
51.0
 40
51.0
 40
52.0
 40
52.0
 40
52.0
 40
53.0
 40
53.0
 40
53.0
 40
54.0
 40
54.0
 40
54.0
 40
55.0
 40
55.0
 40
55.0
 40
56.0
 40
56.0
 40
56.0
 40
57.0
 40
57.0
 40
57.0
 40
58.0
 40
58.0
 40
58.0
 40
59.0
 40
59.0
 40
59.0
 40
60.0
 40
60.0
 40
60.0
 40
61.0
 40
61.0
 40
61.0
 40
62.0
 40
62.0
 40
62.0
 40
63.0
 40
63.0
 40
63.0
 40
64.0
 40
64.0
 40
64.0
 40
65.0
 40
65.0
 40
65.0
 40
65.0
 10
7.5079345703125
 20
-0.4934421115451388
 30
0.0
 10
7.5079345703125
 20
-0.4934421115451388
 30
0.0
 10
7.582939995659721
 20
-0.843471950954861
 30
0.0
 10
7.582939995659721
 20
-0.843471950954861
 30
0.0
 10
7.5079345703125
 20
-0.7834676106770833
 30
0.0
 10
7.389919704861111
 20
-0.6924574110243055
 30
0.0
 10
7.389919704861111
 20
-0.6934611002604166
 30
0.0
 10
7.389919704861111
 20
-0.6934611002604166
 30
0.0
 10
7.281914605034721
 20
-0.6934611002604166
 30
0.0
 10
7.281914605034721
 20
-0.6934611002604166
 30
0.0
 10
7.281914605034721
 20
-0.6934611002604166
 30
0.0
 10
7.484931098090278
 20
-0.830471462673611
 30
0.0
 10
7.484931098090278
 20
-0.830471462673611
 30
0.0
 10
7.475938585069444
 20
-0.8284708658854166
 30
0.0
 10
7.467936197916666
 20
-0.8274671766493055
 30
0.0
 10
7.458930121527778
 20
-0.8274671766493055
 30
0.0
 10
7.404920789930555
 20
-0.8274671766493055
 30
0.0
 10
7.342922634548611
 20
-0.8854777018229166
 30
0.0
 10
7.342922634548611
 20
-0.9514838324652777
 30
0.0
 10
7.342922634548611
 20
-0.9594794379340277
 30
0.0
 10
7.343912760416666
 20
-0.9684855143229166
 30
0.0
 10
7.345920138888888
 20
-0.9764811197916666
 30
0.0
 10
7.345920138888888
 20
-0.9764811197916666
 30
0.0
 10
7.359917534722221
 20
-1.033487955729167
 30
0.0
 10
7.359917534722221
 20
-1.033487955729167
 30
0.0
 10
7.362928602430555
 20
-1.044487847222222
 30
0.0
 10
7.364922417534721
 20
-1.055487738715278
 30
0.0
 10
7.364922417534721
 20
-1.06549072265625
 30
0.0
 10
7.364922417534721
 20
-1.087490505642361
 30
0.0
 10
7.353922526041666
 20
-1.102491590711806
 30
0.0
 10
7.314914279513888
 20
-1.102491590711806
 30
0.0
 10
7.304542541503906
 20
-1.102491590711806
 30
0.0
 10
7.294509887695312
 20
-1.098675198025174
 30
0.0
 10
7.284635755750868
 20
-1.092539469401042
 30
0.0
 10
7.284766303168403
 20
-1.089874267578125
 30
0.0
 10
7.284966362847221
 20
-1.087270100911458
 30
0.0
 10
7.284966362847221
 20
-1.084493001302083
 30
0.0
 10
7.284966362847221
 20
-1.069491916232639
 30
0.0
 10
7.282958984375
 20
-1.052490234375
 30
0.0
 10
7.278957790798611
 20
-1.033487955729167
 30
0.0
 10
7.278957790798611
 20
-1.033487955729167
 30
0.0
 10
7.206949869791666
 20
-0.6934611002604166
 30
0.0
 10
7.206949869791666
 20
-0.6934611002604166
 30
0.0
 10
7.206949869791666
 20
-0.6934611002604166
 30
0.0
 10
7.062934027777778
 20
-0.6934611002604166
 30
0.0
 10
7.062934027777778
 20
-0.6934611002604166
 30
0.0
 10
7.062934027777778
 20
-0.6934611002604166
 30
0.0
 10
7.134941948784721
 20
-1.033487955729167
 30
0.0
 10
7.134941948784721
 20
-1.033487955729167
 30
0.0
 10
7.136935763888888
 20
-1.044487847222222
 30
0.0
 10
7.138943142361111
 20
-1.055487738715278
 30
0.0
 10
7.138943142361111
 20
-1.064493815104167
 30
0.0
 10
7.138943142361111
 20
-1.086493598090278
 30
0.0
 10
7.128933376736111
 20
-1.102491590711806
 30
0.0
 10
7.088948567708333
 20
-1.102491590711806
 30
0.0
 10
7.067871941460503
 20
-1.102491590711806
 30
0.0
 10
7.043470594618055
 20
-1.0869140625
 30
0.0
 10
7.019245571560329
 20
-1.067528618706597
 30
0.0
 10
7.019245571560329
 20
-1.067528618706597
 30
0.0
 10
6.93994140625
 20
-0.6934611002604166
 30
0.0
 10
6.93994140625
 20
-0.6934611002604166
 30
0.0
 10
6.93994140625
 20
-0.6934611002604166
 30
0.0
 10
6.795939127604166
 20
-0.6934611002604166
 30
0.0
 10
6.795939127604166
 20
-0.6934611002604166
 30
0.0
 10
6.795939127604166
 20
-0.6934611002604166
 30
0.0
 10
6.807942708333333
 20
-0.747463650173611
 30
0.0
 10
6.807942708333333
 20
-0.747463650173611
 30
0.0
 10
6.766927083333333
 20
-0.7174614800347222
 30
0.0
 10
6.720933702256944
 20
-0.6934611002604166
 30
0.0
 10
6.676920572916666
 20
-0.6934611002604166
 30
0.0
 10
6.6229248046875
 20
-0.6934611002604166
 30
0.0
 10
6.561916775173611
 20
-0.75146484375
 30
0.0
 10
6.561916775173611
 20
-0.8184678819444444
 30
0.0
 10
6.561916775173611
 20
-0.8264702690972222
 30
0.0
 10
6.561916775173611
 20
-0.83447265625
 30
0.0
 10
6.563910590277778
 20
-0.84246826171875
 30
0.0
 10
6.563910590277778
 20
-0.84246826171875
 30
0.0
 10
6.604926215277778
 20
-1.033487955729167
 30
0.0
 10
6.604926215277778
 20
-1.033487955729167
 30
0.0
 10
6.607923719618055
 20
-1.044487847222222
 30
0.0
 10
6.609917534722221
 20
-1.055487738715278
 30
0.0
 10
6.609917534722221
 20
-1.06549072265625
 30
0.0
 10
6.609917534722221
 20
-1.087490505642361
 30
0.0
 10
6.598917643229166
 20
-1.102491590711806
 30
0.0
 10
6.559922960069444
 20
-1.102491590711806
 30
0.0
 10
6.545396592881944
 20
-1.102491590711806
 30
0.0
 10
6.53420172797309
 20
-1.098320007324219
 30
0.0
 10
6.523875766330295
 20
-1.091584099663628
 30
0.0
 10
6.5245607164171
 20
-1.085180494520399
 30
0.0
 10
6.524956597222221
 20
-1.078781975640191
 30
0.0
 10
6.524956597222221
 20
-1.072489420572917
 30
0.0
 10
6.524956597222221
 20
-0.900478786892361
 30
0.0
 10
6.462944878472221
 20
-0.6944580078125
 30
0.0
 10
6.262939453125
 20
-0.6944580078125
 30
0.0
 10
6.238932291666666
 20
-0.6944580078125
 30
0.0
 10
6.213935004340278
 20
-0.7054578993055555
 30
0.0
 10
6.195936414930555
 20
-0.7194620768229166
 30
0.0
 10
6.195936414930555
 20
-0.7194620768229166
 30
0.0
 10
6.151936848958333
 20
-0.5134412977430556
 30
0.0
 10
6.151936848958333
 20
-0.5134412977430556
 30
0.0
 10
6.151936848958333
 20
-0.5134412977430556
 30
0.0
 10
6.004909939236111
 20
-0.4934421115451388
 30
0.0
 10
6.004909939236111
 20
-0.4934421115451388
 30
0.0
 10
6.004909939236111
 20
-0.4934421115451388
 30
0.0
 10
6.119927300347222
 20
-1.033487955729167
 30
0.0
 10
6.119927300347222
 20
-1.033487955729167
 30
0.0
 10
6.1229248046875
 20
-1.045491536458333
 30
0.0
 10
6.124918619791666
 20
-1.056491427951389
 30
0.0
 10
6.124918619791666
 20
-1.067491319444444
 30
0.0
 10
6.124918619791666
 20
-1.088494194878472
 30
0.0
 10
6.116916232638888
 20
-1.1044921875
 30
0.0
 10
6.088921440972222
 20
-1.1044921875
 30
0.0
 10
6.081922743055555
 20
-1.1044921875
 30
0.0
 10
6.0709228515625
 20
-1.1044921875
 30
0.0
 10
6.062920464409722
 20
-1.101494683159722
 30
0.0
 10
6.090928819444444
 20
-1.1875
 30
0.0
 10
6.132921006944444
 20
-1.193501790364583
 30
0.0
 10
6.166937934027778
 20
-1.193501790364583
 30
0.0
 10
6.224934895833333
 20
-1.193501790364583
 30
0.0
 10
6.255940755208333
 20
-1.163499620225694
 30
0.0
 10
6.265936957465278
 20
-1.118496365017361
 30
0.0
 10
6.295939127604166
 20
-1.159498426649306
 30
0.0
 10
6.3409423828125
 20
-1.199503580729167
 30
0.0
 10
6.400946723090278
 20
-1.199503580729167
 30
0.0
 10
6.466021219889322
 20
-1.199503580729167
 30
0.0
 10
6.499786376953125
 20
-1.168238321940104
 30
0.0
 10
6.51483154296875
 20
-1.129735310872396
 30
0.0
 10
6.550376892089844
 20
-1.164244757758246
 30
0.0
 10
6.5903566148546
 20
-1.193501790364583
 30
0.0
 10
6.630913628472221
 20
-1.193501790364583
 30
0.0
 10
6.708930121527778
 20
-1.193501790364583
 30
0.0
 10
6.754937065972221
 20
-1.159498426649306
 30
0.0
 10
6.754937065972221
 20
-1.084493001302083
 30
0.0
 10
6.754937065972221
 20
-1.068488226996528
 30
0.0
 10
6.7529296875
 20
-1.052490234375
 30
0.0
 10
6.748942057291666
 20
-1.033487955729167
 30
0.0
 10
6.748942057291666
 20
-1.033487955729167
 30
0.0
 10
6.710937330467459
 20
-0.8534749348958333
 30
0.0
 10
6.710937330467459
 20
-0.8534749348958333
 30
0.0
 10
6.708930121527778
 20
-0.8444688585069444
 30
0.0
 10
6.707926432291666
 20
-0.8354695638020833
 30
0.0
 10
6.707926432291666
 20
-0.8274671766493055
 30
0.0
 10
6.707926432291666
 20
-0.791469997829861
 30
0.0
 10
6.7269287109375
 20
-0.7684665256076388
 30
0.0
 10
6.753933376736111
 20
-0.7684665256076388
 30
0.0
 10
6.777940538194444
 20
-0.7684665256076388
 30
0.0
 10
6.795939127604166
 20
-0.7754652235243055
 30
0.0
 10
6.816948784722221
 20
-0.7894694010416666
 30
0.0
 10
6.816948784722221
 20
-0.7894694010416666
 30
0.0
 10
6.901936848958333
 20
-1.193501790364583
 30
0.0
 10
6.901936848958333
 20
-1.193501790364583
 30
0.0
 10
6.901936848958333
 20
-1.193501790364583
 30
0.0
 10
7.045952690972221
 20
-1.193501790364583
 30
0.0
 10
7.045952690972221
 20
-1.193501790364583
 30
0.0
 10
7.045952690972221
 20
-1.193501790364583
 30
0.0
 10
7.030903286404079
 20
-1.122516208224826
 30
0.0
 10
7.030903286404079
 20
-1.122516208224826
 30
0.0
 10
7.074256049262153
 20
-1.160957336425781
 30
0.0
 10
7.121370103624131
 20
-1.193501790364583
 30
0.0
 10
7.159939236111111
 20
-1.193501790364583
 30
0.0
 10
7.217745463053385
 20
-1.193501790364583
 30
0.0
 10
7.259209526909721
 20
-1.174340142144097
 30
0.0
 10
7.276297675238715
 20
-1.133064270019531
 30
0.0
 10
7.312381320529513
 20
-1.166709899902344
 30
0.0
 10
7.350952996148003
 20
-1.193501790364583
 30
0.0
 10
7.385932074652778
 20
-1.193501790364583
 30
0.0
 10
7.462931315104166
 20
-1.193501790364583
 30
0.0
 10
7.510932074652778
 20
-1.159498426649306
 30
0.0
 10
7.510932074652778
 20
-1.086493598090278
 30
0.0
 10
7.510932074652778
 20
-1.070488823784722
 30
0.0
 10
7.508924696180555
 20
-1.052490234375
 30
0.0
 10
7.503933376736111
 20
-1.033487955729167
 30
0.0
 10
7.503933376736111
 20
-1.033487955729167
 30
0.0
 10
7.492933485243055
 20
-0.9874810112847222
 30
0.0
 10
7.492933485243055
 20
-0.9874810112847222
 30
0.0
 10
7.490939670138888
 20
-0.978481716579861
 30
0.0
 10
7.489935980902778
 20
-0.969482421875
 30
0.0
 10
7.489935980902778
 20
-0.9614800347222222
 30
0.0
 10
7.489935980902778
 20
-0.92547607421875
 30
0.0
 10
7.508924696180555
 20
-0.9024793836805555
 30
0.0
 10
7.535942925347221
 20
-0.9024793836805555
 30
0.0
 10
7.560940212673611
 20
-0.9024793836805555
 30
0.0
 10
7.578938802083333
 20
-0.9104749891493055
 30
0.0
 10
7.599934895833333
 20
-0.9244791666666666
 30
0.0
 10
7.599934895833333
 20
-0.9244791666666666
 30
0.0
 10
7.656955295138888
 20
-1.193501790364583
 30
0.0
 10
7.656955295138888
 20
-1.193501790364583
 30
0.0
 10
7.656955295138888
 20
-1.193501790364583
 30
0.0
 10
7.800957573784721
 20
-1.193501790364583
 30
0.0
 10
7.800957573784721
 20
-1.193501790364583
 30
0.0
 10
7.800957573784721
 20
-1.193501790364583
 30
0.0
 10
7.655951605902778
 20
-0.5134412977430556
 30
0.0
 10
7.655951605902778
 20
-0.5134412977430556
 30
0.0
 10
7.655951605902778
 20
-0.5134412977430556
 30
0.0
 10
7.5079345703125
 20
-0.4934421115451388
 30
0.0
 10
7.5079345703125
 20
-0.4934421115451388
 30
0.0
  0
SPLINE
  5
4A
330
42
100
AcDbEntity
  8
Layer 3
 62
   179
420
  2301728
370
    35
100
AcDbSpline
210
0.0
220
0.0
230
1.0
 70
    11
 71
     3
 72
    23
 73
    19
 74
     0
 42
0.0000000001
 43
0.0000000001
 12
1.0
 22
0.0
 32
0.0
 13
1.0
 23
0.0
 33
0.0
 40
0.0
 40
0.0
 40
0.0
 40
0.0
 40
1.0
 40
1.0
 40
1.0
 40
2.0
 40
2.0
 40
2.0
 40
3.0
 40
3.0
 40
3.0
 40
4.0
 40
4.0
 40
4.0
 40
5.0
 40
5.0
 40
5.0
 40
6.0
 40
6.0
 40
6.0
 40
6.0
 10
6.331949869791666
 20
-1.116495768229167
 30
0.0
 10
6.308946397569444
 20
-1.116495768229167
 30
0.0
 10
6.287936740451388
 20
-1.094495985243056
 30
0.0
 10
6.268934461805555
 20
-1.067491319444444
 30
0.0
 10
6.267930772569444
 20
-1.056491427951389
 30
0.0
 10
6.265936957465278
 20
-1.045491536458333
 30
0.0
 10
6.262939453125
 20
-1.033487955729167
 30
0.0
 10
6.262939453125
 20
-1.033487955729167
 30
0.0
 10
6.2059326171875
 20
-0.7674628363715278
 30
0.0
 10
6.2059326171875
 20
-0.7674628363715278
 30
0.0
 10
6.221923828125
 20
-0.7544623480902778
 30
0.0
 10
6.240939670138888
 20
-0.7504611545138888
 30
0.0
 10
6.254937065972221
 20
-0.7504611545138888
 30
0.0
 10
6.329942491319444
 20
-0.7504611545138888
 30
0.0
 10
6.389946831597221
 20
-0.9094780815972222
 30
0.0
 10
6.389946831597221
 20
-1.045491536458333
 30
0.0
 10
6.389946831597221
 20
-1.105495876736111
 30
0.0
 10
6.356947157118055
 20
-1.116495768229167
 30
0.0
 10
6.331949869791666
 20
-1.116495768229167
 30
0.0
  0
SPLINE
  5
4B
330
42
100
AcDbEntity
  8
Layer 3
 62
   179
420
  2301728
370
    35
100
AcDbSpline
210
0.0
220
0.0
230
1.0
 70
    11
 71
     3
 72
    17
 73
    13
 74
     0
 42
0.0000000001
 43
0.0000000001
 12
1.0
 22
0.0
 32
0.0
 13
1.0
 23
0.0
 33
0.0
 40
0.0
 40
0.0
 40
0.0
 40
0.0
 40
1.0
 40
1.0
 40
1.0
 40
2.0
 40
2.0
 40
2.0
 40
3.0
 40
3.0
 40
3.0
 40
4.0
 40
4.0
 40
4.0
 40
4.0
 10
7.108940972222221
 20
-0.6404554578993055
 30
0.0
 10
7.152940538194444
 20
-0.6404554578993055
 30
0.0
 10
7.187947591145833
 20
-0.6054484049479166
 30
0.0
 10
7.187947591145833
 20
-0.5614488389756944
 30
0.0
 10
7.187947591145833
 20
-0.5174424913194444
 30
0.0
 10
7.152940538194444
 20
-0.4814385308159722
 30
0.0
 10
7.108940972222221
 20
-0.4814385308159722
 30
0.0
 10
7.06494140625
 20
-0.4814385308159722
 30
0.0
 10
7.028944227430555
 20
-0.5174424913194444
 30
0.0
 10
7.028944227430555
 20
-0.5614488389756944
 30
0.0
 10
7.028944227430555
 20
-0.6054484049479166
 30
0.0
 10
7.06494140625
 20
-0.6404554578993055
 30
0.0
 10
7.108940972222221
 20
-0.6404554578993055
 30
0.0
  0
SPLINE
  5
4C
330
42
100
AcDbEntity
  8
Layer 3
 62
   179
420
  2301728
370
    35
100
AcDbSpline
210
0.0
220
0.0
230
1.0
 70
    11
 71
     3
 72
   140
 73
   136
 74
     0
 42
0.0000000001
 43
0.0000000001
 12
1.0
 22
0.0
 32
0.0
 13
1.0
 23
0.0
 33
0.0
 40
0.0
 40
0.0
 40
0.0
 40
0.0
 40
1.0
 40
1.0
 40
1.0
 40
2.0
 40
2.0
 40
2.0
 40
3.0
 40
3.0
 40
3.0
 40
4.0
 40
4.0
 40
4.0
 40
5.0
 40
5.0
 40
5.0
 40
6.0
 40
6.0
 40
6.0
 40
7.0
 40
7.0
 40
7.0
 40
8.0
 40
8.0
 40
8.0
 40
9.0
 40
9.0
 40
9.0
 40
10.0
 40
10.0
 40
10.0
 40
11.0
 40
11.0
 40
11.0
 40
12.0
 40
12.0
 40
12.0
 40
13.0
 40
13.0
 40
13.0
 40
14.0
 40
14.0
 40
14.0
 40
15.0
 40
15.0
 40
15.0
 40
16.0
 40
16.0
 40
16.0
 40
17.0
 40
17.0
 40
17.0
 40
18.0
 40
18.0
 40
18.0
 40
19.0
 40
19.0
 40
19.0
 40
20.0
 40
20.0
 40
20.0
 40
21.0
 40
21.0
 40
21.0
 40
22.0
 40
22.0
 40
22.0
 40
23.0
 40
23.0
 40
23.0
 40
24.0
 40
24.0
 40
24.0
 40
25.0
 40
25.0
 40
25.0
 40
26.0
 40
26.0
 40
26.0
 40
27.0
 40
27.0
 40
27.0
 40
28.0
 40
28.0
 40
28.0
 40
29.0
 40
29.0
 40
29.0
 40
30.0
 40
30.0
 40
30.0
 40
31.0
 40
31.0
 40
31.0
 40
32.0
 40
32.0
 40
32.0
 40
33.0
 40
33.0
 40
33.0
 40
34.0
 40
34.0
 40
34.0
 40
35.0
 40
35.0
 40
35.0
 40
36.0
 40
36.0
 40
36.0
 40
37.0
 40
37.0
 40
37.0
 40
38.0
 40
38.0
 40
38.0
 40
39.0
 40
39.0
 40
39.0
 40
40.0
 40
40.0
 40
40.0
 40
41.0
 40
41.0
 40
41.0
 40
42.0
 40
42.0
 40
42.0
 40
43.0
 40
43.0
 40
43.0
 40
44.0
 40
44.0
 40
44.0
 40
45.0
 40
45.0
 40
45.0
 40
45.0
 10
4.823867797851575
 20
-1.129746331108941
 30
0.0
 10
4.859409756130642
 20
-1.164250691731771
 30
0.0
 10
4.899387783474392
 20
-1.193501790364583
 30
0.0
 10
4.939954969618055
 20
-1.193501790364583
 30
0.0
 10
5.017957899305555
 20
-1.193501790364583
 30
0.0
 10
5.06396484375
 20
-1.159498426649306
 30
0.0
 10
5.06396484375
 20
-1.084493001302083
 30
0.0
 10
5.06396484375
 20
-1.068488226996528
 30
0.0
 10
5.061957465277778
 20
-1.052490234375
 30
0.0
 10
5.057956271701388
 20
-1.033487955729167
 30
0.0
 10
5.057956271701388
 20
-1.033487955729167
 30
0.0
 10
5.019951714409722
 20
-0.8534749348958333
 30
0.0
 10
5.019951714409722
 20
-0.8534749348958333
 30
0.0
 10
5.017957899305555
 20
-0.8444688585069444
 30
0.0
 10
5.016954210069444
 20
-0.8354695638020833
 30
0.0
 10
5.016954210069444
 20
-0.8274671766493055
 30
0.0
 10
5.016954210069444
 20
-0.791469997829861
 30
0.0
 10
5.035956488715278
 20
-0.7684665256076388
 30
0.0
 10
5.062961154513888
 20
-0.7684665256076388
 30
0.0
 10
5.086968315972222
 20
-0.7684665256076388
 30
0.0
 10
5.104966905381944
 20
-0.7754652235243055
 30
0.0
 10
5.125962999131944
 20
-0.7894694010416666
 30
0.0
 10
5.125962999131944
 20
-0.7894694010416666
 30
0.0
 10
5.210978190104166
 20
-1.193501790364583
 30
0.0
 10
5.210978190104166
 20
-1.193501790364583
 30
0.0
 10
5.210978190104166
 20
-1.193501790364583
 30
0.0
 10
5.35498046875
 20
-1.193501790364583
 30
0.0
 10
5.35498046875
 20
-1.193501790364583
 30
0.0
 10
5.35498046875
 20
-1.193501790364583
 30
0.0
 10
5.342402140299479
 20
-1.134165445963542
 30
0.0
 10
5.342402140299479
 20
-1.134165445963542
 30
0.0
 10
5.381873236762153
 20
-1.167301601833767
 30
0.0
 10
5.423350016276041
 20
-1.193501790364583
 30
0.0
 10
5.457953559027778
 20
-1.193501790364583
 30
0.0
 10
5.52294921875
 20
-1.193501790364583
 30
0.0
 10
5.566948784722222
 20
-1.169501410590278
 30
0.0
 10
5.579969618055555
 20
-1.11749267578125
 30
0.0
 10
5.609971788194444
 20
-1.158501519097222
 30
0.0
 10
5.654975043402778
 20
-1.199503580729167
 30
0.0
 10
5.715969509548611
 20
-1.199503580729167
 30
0.0
 10
5.811984592013888
 20
-1.199503580729167
 30
0.0
 10
5.839979383680555
 20
-1.131496853298611
 30
0.0
 10
5.839979383680555
 20
-1.072489420572917
 30
0.0
 10
5.839979383680555
 20
-0.900478786892361
 30
0.0
 10
5.777967664930555
 20
-0.6944580078125
 30
0.0
 10
5.577962239583333
 20
-0.6944580078125
 30
0.0
 10
5.553955078125
 20
-0.6944580078125
 30
0.0
 10
5.528957790798611
 20
-0.7044609917534722
 30
0.0
 10
5.510959201388888
 20
-0.7194620768229166
 30
0.0
 10
5.510959201388888
 20
-0.7194620768229166
 30
0.0
 10
5.504950629340278
 20
-0.6934611002604166
 30
0.0
 10
5.504950629340278
 20
-0.6934611002604166
 30
0.0
 10
5.504950629340278
 20
-0.6934611002604166
 30
0.0
 10
5.360934787326388
 20
-0.6934611002604166
 30
0.0
 10
5.360934787326388
 20
-0.6934611002604166
 30
0.0
 10
5.360934787326388
 20
-0.6934611002604166
 30
0.0
 10
5.432942708333333
 20
-1.033487955729167
 30
0.0
 10
5.432942708333333
 20
-1.033487955729167
 30
0.0
 10
5.434950086805555
 20
-1.044487847222222
 30
0.0
 10
5.436943901909722
 20
-1.055487738715278
 30
0.0
 10
5.436943901909722
 20
-1.064493815104167
 30
0.0
 10
5.436943901909722
 20
-1.086493598090278
 30
0.0
 10
5.426947699652778
 20
-1.102491590711806
 30
0.0
 10
5.386949327256944
 20
-1.102491590711806
 30
0.0
 10
5.369695875379774
 20
-1.102491590711806
 30
0.0
 10
5.350209554036458
 20
-1.092052883572049
 30
0.0
 10
5.330420600043403
 20
-1.077640957302517
 30
0.0
 10
5.330420600043403
 20
-1.077640957302517
 30
0.0
 10
5.248982747395833
 20
-0.6934611002604166
 30
0.0
 10
5.248982747395833
 20
-0.6934611002604166
 30
0.0
 10
5.248982747395833
 20
-0.6934611002604166
 30
0.0
 10
5.104966905381944
 20
-0.6934611002604166
 30
0.0
 10
5.104966905381944
 20
-0.6934611002604166
 30
0.0
 10
5.104966905381944
 20
-0.6934611002604166
 30
0.0
 10
5.116970486111111
 20
-0.747463650173611
 30
0.0
 10
5.116970486111111
 20
-0.747463650173611
 30
0.0
 10
5.075968424479166
 20
-0.7174614800347222
 30
0.0
 10
5.029961480034722
 20
-0.6934611002604166
 30
0.0
 10
4.985948350694444
 20
-0.6934611002604166
 30
0.0
 10
4.931952582465278
 20
-0.6934611002604166
 30
0.0
 10
4.870944552951388
 20
-0.75146484375
 30
0.0
 10
4.870944552951388
 20
-0.8184678819444444
 30
0.0
 10
4.870944552951388
 20
-0.8264702690972222
 30
0.0
 10
4.870944552951388
 20
-0.83447265625
 30
0.0
 10
4.872938368055555
 20
-0.84246826171875
 30
0.0
 10
4.872938368055555
 20
-0.84246826171875
 30
0.0
 10
4.913953993055555
 20
-1.033487955729167
 30
0.0
 10
4.913953993055555
 20
-1.033487955729167
 30
0.0
 10
4.916951497395833
 20
-1.044487847222222
 30
0.0
 10
4.9189453125
 20
-1.055487738715278
 30
0.0
 10
4.9189453125
 20
-1.06549072265625
 30
0.0
 10
4.9189453125
 20
-1.087490505642361
 30
0.0
 10
4.907945421006944
 20
-1.102491590711806
 30
0.0
 10
4.868950737847222
 20
-1.102491590711806
 30
0.0
 10
4.854430304633246
 20
-1.102491590711806
 30
0.0
 10
4.843238830566406
 20
-1.098322550455729
 30
0.0
 10
4.832916259765625
 20
-1.091590881347656
 30
0.0
 10
4.833602057562934
 20
-1.085184733072917
 30
0.0
 10
4.833997938368055
 20
-1.078784518771701
 30
0.0
 10
4.833997938368055
 20
-1.072489420572917
 30
0.0
 10
4.833997938368055
 20
-0.900478786892361
 30
0.0
 10
4.771999782986111
 20
-0.6944580078125
 30
0.0
 10
4.571980794270833
 20
-0.6944580078125
 30
0.0
 10
4.5479736328125
 20
-0.6944580078125
 30
0.0
 10
4.522976345486111
 20
-0.7054578993055555
 30
0.0
 10
4.504977756076388
 20
-0.7194620768229166
 30
0.0
 10
4.504977756076388
 20
-0.7194620768229166
 30
0.0
 10
4.460964626736111
 20
-0.5134412977430556
 30
0.0
 10
4.460964626736111
 20
-0.5134412977430556
 30
0.0
 10
4.460964626736111
 20
-0.5134412977430556
 30
0.0
 10
4.313951280381945
 20
-0.4934421115451388
 30
0.0
 10
4.313951280381945
 20
-0.4934421115451388
 30
0.0
 10
4.313951280381945
 20
-0.4934421115451388
 30
0.0
 10
4.428968641493055
 20
-1.033487955729167
 30
0.0
 10
4.428968641493055
 20
-1.033487955729167
 30
0.0
 10
4.431966145833333
 20
-1.045491536458333
 30
0.0
 10
4.4339599609375
 20
-1.056491427951389
 30
0.0
 10
4.4339599609375
 20
-1.067491319444444
 30
0.0
 10
4.4339599609375
 20
-1.088494194878472
 30
0.0
 10
4.425971137152778
 20
-1.1044921875
 30
0.0
 10
4.397962782118055
 20
-1.1044921875
 30
0.0
 10
4.390964084201388
 20
-1.1044921875
 30
0.0
 10
4.379964192708333
 20
-1.1044921875
 30
0.0
 10
4.371961805555555
 20
-1.101494683159722
 30
0.0
 10
4.399956597222222
 20
-1.1875
 30
0.0
 10
4.441962348090278
 20
-1.193501790364583
 30
0.0
 10
4.475965711805555
 20
-1.193501790364583
 30
0.0
 10
4.533976236979166
 20
-1.193501790364583
 30
0.0
 10
4.564982096354166
 20
-1.163499620225694
 30
0.0
 10
4.574978298611111
 20
-1.118496365017361
 30
0.0
 10
4.60498046875
 20
-1.159498426649306
 30
0.0
 10
4.649983723958333
 20
-1.199503580729167
 30
0.0
 10
4.709988064236111
 20
-1.199503580729167
 30
0.0
 10
4.775055779351129
 20
-1.199503580729167
 30
0.0
 10
4.808820088704427
 20
-1.168244255913628
 30
0.0
 10
4.823867797851575
 20
-1.129746331108941
 30
0.0
  0
SPLINE
  5
4D
330
42
100
AcDbEntity
  8
Layer 3
 62
   179
420
  2301728
370
    35
100
AcDbSpline
210
0.0
220
0.0
230
1.0
 70
    11
 71
     3
 72
    23
 73
    19
 74
     0
 42
0.0000000001
 43
0.0000000001
 12
1.0
 22
0.0
 32
0.0
 13
1.0
 23
0.0
 33
0.0
 40
0.0
 40
0.0
 40
0.0
 40
0.0
 40
1.0
 40
1.0
 40
1.0
 40
2.0
 40
2.0
 40
2.0
 40
3.0
 40
3.0
 40
3.0
 40
4.0
 40
4.0
 40
4.0
 40
5.0
 40
5.0
 40
5.0
 40
6.0
 40
6.0
 40
6.0
 40
6.0
 10
5.569959852430555
 20
-0.7504611545138888
 30
0.0
 10
5.64496513517396
 20
-0.7504611545138888
 30
0.0
 10
5.704969618055555
 20
-0.9094780815972222
 30
0.0
 10
5.704969618055555
 20
-1.045491536458333
 30
0.0
 10
5.704969618055555
 20
-1.105495876736111
 30
0.0
 10
5.671969943576388
 20
-1.116495768229167
 30
0.0
 10
5.64697265625
 20
-1.116495768229167
 30
0.0
 10
5.623969184027778
 20
-1.116495768229167
 30
0.0
 10
5.601969401041666
 20
-1.094495985243056
 30
0.0
 10
5.582953559027778
 20
-1.066487630208333
 30
0.0
 10
5.581963433159722
 20
-1.056491427951389
 30
0.0
 10
5.579969618055555
 20
-1.045491536458333
 30
0.0
 10
5.576958550347222
 20
-1.033487955729167
 30
0.0
 10
5.576958550347222
 20
-1.033487955729167
 30
0.0
 10
5.520955403645833
 20
-0.7684665256076388
 30
0.0
 10
5.520955403645833
 20
-0.7684665256076388
 30
0.0
 10
5.536946614583333
 20
-0.7544623480902778
 30
0.0
 10
5.555962456597222
 20
-0.7504611545138888
 30
0.0
 10
5.569959852430555
 20
-0.7504611545138888
 30
0.0
  0
SPLINE
  5
4E
330
42
100
AcDbEntity
  8
Layer 3
 62
   179
420
  2301728
370
    35
100
AcDbSpline
210
0.0
220
0.0
230
1.0
 70
    11
 71
     3
 72
    23
 73
    19
 74
     0
 42
0.0000000001
 43
0.0000000001
 12
1.0
 22
0.0
 32
0.0
 13
1.0
 23
0.0
 33
0.0
 40
0.0
 40
0.0
 40
0.0
 40
0.0
 40
1.0
 40
1.0
 40
1.0
 40
2.0
 40
2.0
 40
2.0
 40
3.0
 40
3.0
 40
3.0
 40
4.0
 40
4.0
 40
4.0
 40
5.0
 40
5.0
 40
5.0
 40
6.0
 40
6.0
 40
6.0
 40
6.0
 10
4.640977647569444
 20
-1.116495768229167
 30
0.0
 10
4.617987738715278
 20
-1.116495768229167
 30
0.0
 10
4.596978081597222
 20
-1.094495985243056
 30
0.0
 10
4.577975802951388
 20
-1.067491319444444
 30
0.0
 10
4.576972113715278
 20
-1.056491427951389
 30
0.0
 10
4.574978298611111
 20
-1.045491536458333
 30
0.0
 10
4.571980794270833
 20
-1.033487955729167
 30
0.0
 10
4.571980794270833
 20
-1.033487955729167
 30
0.0
 10
4.514973958333333
 20
-0.7674628363715278
 30
0.0
 10
4.514973958333333
 20
-0.7674628363715278
 30
0.0
 10
4.530978732638888
 20
-0.7544623480902778
 30
0.0
 10
4.549981011284722
 20
-0.7504611545138888
 30
0.0
 10
4.563978407118055
 20
-0.7504611545138888
 30
0.0
 10
4.638983832465278
 20
-0.7504611545138888
 30
0.0
 10
4.698988172743055
 20
-0.9094780815972222
 30
0.0
 10
4.698988172743055
 20
-1.045491536458333
 30
0.0
 10
4.698988172743055
 20
-1.105495876736111
 30
0.0
 10
4.665988498263888
 20
-1.116495768229167
 30
0.0
 10
4.640977647569444
 20
-1.116495768229167
 30
0.0
  0
SPLINE
  5
4F
330
42
100
AcDbEntity
  8
Layer 3
 62
   179
420
  2301728
370
    35
100
AcDbSpline
210
0.0
220
0.0
230
1.0
 70
    11
 71
     3
 72
    83
 73
    79
 74
     0
 42
0.0000000001
 43
0.0000000001
 12
1.0
 22
0.0
 32
0.0
 13
1.0
 23
0.0
 33
0.0
 40
0.0
 40
0.0
 40
0.0
 40
0.0
 40
1.0
 40
1.0
 40
1.0
 40
2.0
 40
2.0
 40
2.0
 40
3.0
 40
3.0
 40
3.0
 40
4.0
 40
4.0
 40
4.0
 40
5.0
 40
5.0
 40
5.0
 40
6.0
 40
6.0
 40
6.0
 40
7.0
 40
7.0
 40
7.0
 40
8.0
 40
8.0
 40
8.0
 40
9.0
 40
9.0
 40
9.0
 40
10.0
 40
10.0
 40
10.0
 40
11.0
 40
11.0
 40
11.0
 40
12.0
 40
12.0
 40
12.0
 40
13.0
 40
13.0
 40
13.0
 40
14.0
 40
14.0
 40
14.0
 40
15.0
 40
15.0
 40
15.0
 40
16.0
 40
16.0
 40
16.0
 40
17.0
 40
17.0
 40
17.0
 40
18.0
 40
18.0
 40
18.0
 40
19.0
 40
19.0
 40
19.0
 40
20.0
 40
20.0
 40
20.0
 40
21.0
 40
21.0
 40
21.0
 40
22.0
 40
22.0
 40
22.0
 40
23.0
 40
23.0
 40
23.0
 40
24.0
 40
24.0
 40
24.0
 40
25.0
 40
25.0
 40
25.0
 40
26.0
 40
26.0
 40
26.0
 40
26.0
 10
3.850340949164496
 20
-1.095870971679688
 30
0.0
 10
3.900629679361991
 20
-1.144617716471354
 30
0.0
 10
3.960721333821614
 20
-1.193501790364583
 30
0.0
 10
4.008015950520833
 20
-1.193501790364583
 30
0.0
 10
4.085015190972222
 20
-1.193501790364583
 30
0.0
 10
4.132025824652778
 20
-1.159498426649306
 30
0.0
 10
4.132025824652778
 20
-1.084493001302083
 30
0.0
 10
4.132025824652778
 20
-1.031487358940972
 30
0.0
 10
4.080023871527778
 20
-0.8194715711805555
 30
0.0
 10
4.063015407986111
 20
-0.73345947265625
 30
0.0
 10
4.063015407986111
 20
-0.73345947265625
 30
0.0
 10
4.096015082465278
 20
-0.73345947265625
 30
0.0
 10
4.096015082465278
 20
-0.73345947265625
 30
0.0
 10
4.096015082465278
 20
-0.73345947265625
 30
0.0
 10
4.0880126953125
 20
-0.6934611002604166
 30
0.0
 10
4.0880126953125
 20
-0.6934611002604166
 30
0.0
 10
4.0880126953125
 20
-0.6934611002604166
 30
0.0
 10
4.055013020833333
 20
-0.6934611002604166
 30
0.0
 10
4.055013020833333
 20
-0.6934611002604166
 30
0.0
 10
4.055013020833333
 20
-0.6934611002604166
 30
0.0
 10
4.025010850694445
 20
-0.555447048611111
 30
0.0
 10
4.025010850694445
 20
-0.555447048611111
 30
0.0
 10
4.025010850694445
 20
-0.555447048611111
 30
0.0
 10
3.876993815104167
 20
-0.5354478624131944
 30
0.0
 10
3.876993815104167
 20
-0.5354478624131944
 30
0.0
 10
3.876993815104167
 20
-0.5354478624131944
 30
0.0
 10
3.891994900173611
 20
-0.6034478081597222
 30
0.0
 10
3.910997178819444
 20
-0.6934611002604166
 30
0.0
 10
3.910997178819444
 20
-0.6934611002604166
 30
0.0
 10
3.850992838541667
 20
-0.6934611002604166
 30
0.0
 10
3.850992838541667
 20
-0.6934611002604166
 30
0.0
 10
3.850992838541667
 20
-0.6934611002604166
 30
0.0
 10
3.858995225694444
 20
-0.73345947265625
 30
0.0
 10
3.858995225694444
 20
-0.73345947265625
 30
0.0
 10
3.858995225694444
 20
-0.73345947265625
 30
0.0
 10
3.918999565972222
 20
-0.73345947265625
 30
0.0
 10
3.918999565972222
 20
-0.73345947265625
 30
0.0
 10
3.988009982638889
 20
-1.049492730034722
 30
0.0
 10
3.987006293402778
 20
-1.059488932291667
 30
0.0
 10
3.987006293402778
 20
-1.064493815104167
 30
0.0
 10
3.987006293402778
 20
-1.087490505642361
 30
0.0
 10
3.977010091145833
 20
-1.102491590711806
 30
0.0
 10
3.93701171875
 20
-1.102491590711806
 30
0.0
 10
3.907729254828559
 20
-1.102491590711806
 30
0.0
 10
3.87203809950088
 20
-1.072501288519965
 30
0.0
 10
3.839316474066853
 20
-1.043869866265191
 30
0.0
 10
3.839316474066853
 20
-1.043869866265191
 30
0.0
 10
3.765028211805555
 20
-0.6934611002604166
 30
0.0
 10
3.765028211805555
 20
-0.6934611002604166
 30
0.0
 10
3.765028211805555
 20
-0.6934611002604166
 30
0.0
 10
3.621012369791667
 20
-0.6934611002604166
 30
0.0
 10
3.621012369791667
 20
-0.6934611002604166
 30
0.0
 10
3.621012369791667
 20
-0.6934611002604166
 30
0.0
 10
3.632012261284722
 20
-0.7434624565972222
 30
0.0
 10
3.632012261284722
 20
-0.7434624565972222
 30
0.0
 10
3.596015082465278
 20
-0.7154608832465278
 30
0.0
 10
3.556003146701389
 20
-0.6934611002604166
 30
0.0
 10
3.513997395833333
 20
-0.6934611002604166
 30
0.0
 10
3.468994140625
 20
-0.6934611002604166
 30
0.0
 10
3.441989474826389
 20
-0.7194620768229166
 30
0.0
 10
3.441989474826389
 20
-0.7574666341145833
 30
0.0
 10
3.441989474826389
 20
-0.7924669053819444
 30
0.0
 10
3.468004014756944
 20
-0.8354695638020833
 30
0.0
 10
3.517008463541667
 20
-0.8354695638020833
 30
0.0
 10
3.573011610243055
 20
-0.8354695638020833
 30
0.0
 10
3.545003255208333
 20
-0.7694634331597222
 30
0.0
 10
3.575005425347222
 20
-0.7694634331597222
 30
0.0
 10
3.605007595486111
 20
-0.7694634331597222
 30
0.0
 10
3.621012369791667
 20
-0.7804633246527777
 30
0.0
 10
3.644015842013889
 20
-0.8014662000868055
 30
0.0
 10
3.644015842013889
 20
-0.8014662000868055
 30
0.0
 10
3.727023654513889
 20
-1.193501790364583
 30
0.0
 10
3.727023654513889
 20
-1.193501790364583
 30
0.0
 10
3.727023654513889
 20
-1.193501790364583
 30
0.0
 10
3.871039496527778
 20
-1.193501790364583
 30
0.0
 10
3.871039496527778
 20
-1.193501790364583
 30
0.0
 10
3.871039496527778
 20
-1.193501790364583
 30
0.0
 10
3.850340949164496
 20
-1.095870971679688
 30
0.0
 10
3.850340949164496
 20
-1.095870971679688
 30
0.0
  0
SPLINE
  5
50
330
42
100
AcDbEntity
  8
Layer 3
 62
   179
420
  2301728
370
    35
100
AcDbSpline
210
0.0
220
0.0
230
1.0
 70
    11
 71
     3
 72
   290
 73
   286
 74
     0
 42
0.0000000001
 43
0.0000000001
 12
1.0
 22
0.0
 32
0.0
 13
1.0
 23
0.0
 33
0.0
 40
0.0
 40
0.0
 40
0.0
 40
0.0
 40
1.0
 40
1.0
 40
1.0
 40
2.0
 40
2.0
 40
2.0
 40
3.0
 40
3.0
 40
3.0
 40
4.0
 40
4.0
 40
4.0
 40
5.0
 40
5.0
 40
5.0
 40
6.0
 40
6.0
 40
6.0
 40
7.0
 40
7.0
 40
7.0
 40
8.0
 40
8.0
 40
8.0
 40
9.0
 40
9.0
 40
9.0
 40
10.0
 40
10.0
 40
10.0
 40
11.0
 40
11.0
 40
11.0
 40
12.0
 40
12.0
 40
12.0
 40
13.0
 40
13.0
 40
13.0
 40
14.0
 40
14.0
 40
14.0
 40
15.0
 40
15.0
 40
15.0
 40
16.0
 40
16.0
 40
16.0
 40
17.0
 40
17.0
 40
17.0
 40
18.0
 40
18.0
 40
18.0
 40
19.0
 40
19.0
 40
19.0
 40
20.0
 40
20.0
 40
20.0
 40
21.0
 40
21.0
 40
21.0
 40
22.0
 40
22.0
 40
22.0
 40
23.0
 40
23.0
 40
23.0
 40
24.0
 40
24.0
 40
24.0
 40
25.0
 40
25.0
 40
25.0
 40
26.0
 40
26.0
 40
26.0
 40
27.0
 40
27.0
 40
27.0
 40
28.0
 40
28.0
 40
28.0
 40
29.0
 40
29.0
 40
29.0
 40
30.0
 40
30.0
 40
30.0
 40
31.0
 40
31.0
 40
31.0
 40
32.0
 40
32.0
 40
32.0
 40
33.0
 40
33.0
 40
33.0
 40
34.0
 40
34.0
 40
34.0
 40
35.0
 40
35.0
 40
35.0
 40
36.0
 40
36.0
 40
36.0
 40
37.0
 40
37.0
 40
37.0
 40
38.0
 40
38.0
 40
38.0
 40
39.0
 40
39.0
 40
39.0
 40
40.0
 40
40.0
 40
40.0
 40
41.0
 40
41.0
 40
41.0
 40
42.0
 40
42.0
 40
42.0
 40
43.0
 40
43.0
 40
43.0
 40
44.0
 40
44.0
 40
44.0
 40
45.0
 40
45.0
 40
45.0
 40
46.0
 40
46.0
 40
46.0
 40
47.0
 40
47.0
 40
47.0
 40
48.0
 40
48.0
 40
48.0
 40
49.0
 40
49.0
 40
49.0
 40
50.0
 40
50.0
 40
50.0
 40
51.0
 40
51.0
 40
51.0
 40
52.0
 40
52.0
 40
52.0
 40
53.0
 40
53.0
 40
53.0
 40
54.0
 40
54.0
 40
54.0
 40
55.0
 40
55.0
 40
55.0
 40
56.0
 40
56.0
 40
56.0
 40
57.0
 40
57.0
 40
57.0
 40
58.0
 40
58.0
 40
58.0
 40
59.0
 40
59.0
 40
59.0
 40
60.0
 40
60.0
 40
60.0
 40
61.0
 40
61.0
 40
61.0
 40
62.0
 40
62.0
 40
62.0
 40
63.0
 40
63.0
 40
63.0
 40
64.0
 40
64.0
 40
64.0
 40
65.0
 40
65.0
 40
65.0
 40
66.0
 40
66.0
 40
66.0
 40
67.0
 40
67.0
 40
67.0
 40
68.0
 40
68.0
 40
68.0
 40
69.0
 40
69.0
 40
69.0
 40
70.0
 40
70.0
 40
70.0
 40
71.0
 40
71.0
 40
71.0
 40
72.0
 40
72.0
 40
72.0
 40
73.0
 40
73.0
 40
73.0
 40
74.0
 40
74.0
 40
74.0
 40
75.0
 40
75.0
 40
75.0
 40
76.0
 40
76.0
 40
76.0
 40
77.0
 40
77.0
 40
77.0
 40
78.0
 40
78.0
 40
78.0
 40
79.0
 40
79.0
 40
79.0
 40
80.0
 40
80.0
 40
80.0
 40
81.0
 40
81.0
 40
81.0
 40
82.0
 40
82.0
 40
82.0
 40
83.0
 40
83.0
 40
83.0
 40
84.0
 40
84.0
 40
84.0
 40
85.0
 40
85.0
 40
85.0
 40
86.0
 40
86.0
 40
86.0
 40
87.0
 40
87.0
 40
87.0
 40
88.0
 40
88.0
 40
88.0
 40
89.0
 40
89.0
 40
89.0
 40
90.0
 40
90.0
 40
90.0
 40
91.0
 40
91.0
 40
91.0
 40
92.0
 40
92.0
 40
92.0
 40
93.0
 40
93.0
 40
93.0
 40
94.0
 40
94.0
 40
94.0
 40
95.0
 40
95.0
 40
95.0
 40
95.0
 10
1.1690673828125
 20
-1.067491319444444
 30
0.0
 10
1.1690673828125
 20
-1.088494194878472
 30
0.0
 10
1.161064995659722
 20
-1.1044921875
 30
0.0
 10
1.133056640625
 20
-1.1044921875
 30
0.0
 10
1.126057942708333
 20
-1.1044921875
 30
0.0
 10
1.115058051215278
 20
-1.1044921875
 30
0.0
 10
1.1070556640625
 20
-1.101494683159722
 30
0.0
 10
1.135064019097222
 20
-1.1875
 30
0.0
 10
1.177069769965278
 20
-1.193501790364583
 30
0.0
 10
1.211073133680556
 20
-1.193501790364583
 30
0.0
 10
1.27077399359809
 20
-1.193501790364583
 30
0.0
 10
1.302103678385417
 20
-1.160212198893229
 30
0.0
 10
1.310595194498698
 20
-1.112178378634983
 30
0.0
 10
1.356952243381076
 20
-1.154932657877604
 30
0.0
 10
1.409022013346367
 20
-1.193501790364583
 30
0.0
 10
1.451009114583333
 20
-1.193501790364583
 30
0.0
 10
1.520005967881944
 20
-1.193501790364583
 30
0.0
 10
1.564019097222222
 20
-1.167500813802083
 30
0.0
 10
1.574015299479167
 20
-1.1094970703125
 30
0.0
 10
1.621012369791667
 20
-1.153496636284722
 30
0.0
 10
1.674018012152778
 20
-1.193501790364583
 30
0.0
 10
1.717027452256944
 20
-1.193501790364583
 30
0.0
 10
1.795030381944444
 20
-1.193501790364583
 30
0.0
 10
1.841037326388889
 20
-1.159498426649306
 30
0.0
 10
1.841037326388889
 20
-1.084493001302083
 30
0.0
 10
1.841037326388889
 20
-1.068488226996528
 30
0.0
 10
1.839043511284722
 20
-1.052490234375
 30
0.0
 10
1.835042317708333
 20
-1.033487955729167
 30
0.0
 10
1.835042317708333
 20
-1.033487955729167
 30
0.0
 10
1.776028103298611
 20
-0.7454630533854166
 30
0.0
 10
1.776028103298611
 20
-0.7454630533854166
 30
0.0
 10
1.776028103298611
 20
-0.7454630533854166
 30
0.0
 10
1.903049045138889
 20
-0.7454630533854166
 30
0.0
 10
1.903049045138889
 20
-0.7454630533854166
 30
0.0
 10
1.903049045138889
 20
-0.7454630533854166
 30
0.0
 10
2.014051649305555
 20
-1.273505316840278
 30
0.0
 10
2.014051649305555
 20
-1.273505316840278
 30
0.0
 10
2.044053819444444
 20
-1.416524251302083
 30
0.0
 10
2.130059136284722
 20
-1.443522135416667
 30
0.0
 10
2.196072048611111
 20
-1.443522135416667
 30
0.0
 10
2.257066514756944
 20
-1.443522135416667
 30
0.0
 10
2.314073350694444
 20
-1.400519476996528
 30
0.0
 10
2.314073350694444
 20
-1.335517035590278
 30
0.0
 10
2.314073350694444
 20
-1.243503146701389
 30
0.0
 10
2.236070421006944
 20
-1.214504665798611
 30
0.0
 10
2.141059027777778
 20
-1.185499403211806
 30
0.0
 10
2.141059027777778
 20
-1.185499403211806
 30
0.0
 10
2.128007676866319
 20
-1.123396131727431
 30
0.0
 10
2.128007676866319
 20
-1.123396131727431
 30
0.0
 10
2.171082390679254
 20
-1.161444769965278
 30
0.0
 10
2.217760721842448
 20
-1.193501790364583
 30
0.0
 10
2.256035698784722
 20
-1.193501790364583
 30
0.0
 10
2.334038628472222
 20
-1.193501790364583
 30
0.0
 10
2.380045572916667
 20
-1.159498426649306
 30
0.0
 10
2.380045572916667
 20
-1.084493001302083
 30
0.0
 10
2.380045572916667
 20
-1.068488226996528
 30
0.0
 10
2.378038194444444
 20
-1.052490234375
 30
0.0
 10
2.374037000868055
 20
-1.033487955729167
 30
0.0
 10
2.374037000868055
 20
-1.033487955729167
 30
0.0
 10
2.336032443576389
 20
-0.8534749348958333
 30
0.0
 10
2.336032443576389
 20
-0.8534749348958333
 30
0.0
 10
2.334038628472222
 20
-0.8444688585069444
 30
0.0
 10
2.333034939236111
 20
-0.8354695638020833
 30
0.0
 10
2.333034939236111
 20
-0.8274671766493055
 30
0.0
 10
2.333034939236111
 20
-0.791469997829861
 30
0.0
 10
2.352037217881944
 20
-0.7684665256076388
 30
0.0
 10
2.379041883680555
 20
-0.7684665256076388
 30
0.0
 10
2.403049045138889
 20
-0.7684665256076388
 30
0.0
 10
2.421047634548611
 20
-0.7754652235243055
 30
0.0
 10
2.4410400390625
 20
-0.7894694010416666
 30
0.0
 10
2.4410400390625
 20
-0.7894694010416666
 30
0.0
 10
2.527058919270833
 20
-1.193501790364583
 30
0.0
 10
2.527058919270833
 20
-1.193501790364583
 30
0.0
 10
2.527058919270833
 20
-1.193501790364583
 30
0.0
 10
2.671061197916667
 20
-1.193501790364583
 30
0.0
 10
2.671061197916667
 20
-1.193501790364583
 30
0.0
 10
2.671061197916667
 20
-1.193501790364583
 30
0.0
 10
2.651502821180555
 20
-1.101776970757378
 30
0.0
 10
2.651502821180555
 20
-1.101776970757378
 30
0.0
 10
2.700488620334214
 20
-1.148485819498698
 30
0.0
 10
2.757649739583333
 20
-1.193501790364583
 30
0.0
 10
2.803032769097222
 20
-1.193501790364583
 30
0.0
 10
2.870755513509114
 20
-1.193501790364583
 30
0.0
 10
2.915245903862847
 20
-1.167165968153212
 30
0.0
 10
2.92499033610026
 20
-1.109796312120226
 30
0.0
 10
2.97198740641276
 20
-1.153496636284722
 30
0.0
 10
3.025230407714844
 20
-1.193501790364583
 30
0.0
 10
3.0679931640625
 20
-1.193501790364583
 30
0.0
 10
3.135999891493055
 20
-1.193501790364583
 30
0.0
 10
3.1820068359375
 20
-1.167500813802083
 30
0.0
 10
3.191012912326389
 20
-1.1094970703125
 30
0.0
 10
3.238009982638889
 20
-1.153496636284722
 30
0.0
 10
3.292019314236111
 20
-1.193501790364583
 30
0.0
 10
3.335015190972222
 20
-1.193501790364583
 30
0.0
 10
3.412027994791667
 20
-1.193501790364583
 30
0.0
 10
3.460028754340278
 20
-1.159498426649306
 30
0.0
 10
3.460028754340278
 20
-1.084493001302083
 30
0.0
 10
3.460028754340278
 20
-1.069491916232639
 30
0.0
 10
3.458034939236111
 20
-1.052490234375
 30
0.0
 10
3.454033745659722
 20
-1.033487955729167
 30
0.0
 10
3.454033745659722
 20
-1.033487955729167
 30
0.0
 10
3.382025824652778
 20
-0.6934611002604166
 30
0.0
 10
3.382025824652778
 20
-0.6934611002604166
 30
0.0
 10
3.382025824652778
 20
-0.6934611002604166
 30
0.0
 10
3.238009982638889
 20
-0.6934611002604166
 30
0.0
 10
3.238009982638889
 20
-0.6934611002604166
 30
0.0
 10
3.238009982638889
 20
-0.6934611002604166
 30
0.0
 10
3.310017903645833
 20
-1.033487955729167
 30
0.0
 10
3.310017903645833
 20
-1.033487955729167
 30
0.0
 10
3.312025282118055
 20
-1.044487847222222
 30
0.0
 10
3.314019097222222
 20
-1.055487738715278
 30
0.0
 10
3.314019097222222
 20
-1.064493815104167
 30
0.0
 10
3.314019097222222
 20
-1.086493598090278
 30
0.0
 10
3.304022894965278
 20
-1.102491590711806
 30
0.0
 10
3.264010959201389
 20
-1.102491590711806
 30
0.0
 10
3.243014865451389
 20
-1.102491590711806
 30
0.0
 10
3.218017578125
 20
-1.086493598090278
 30
0.0
 10
3.193006727430555
 20
-1.066487630208333
 30
0.0
 10
3.192003038194444
 20
-1.056491427951389
 30
0.0
 10
3.190009223090278
 20
-1.045491536458333
 30
0.0
 10
3.18701171875
 20
-1.033487955729167
 30
0.0
 10
3.18701171875
 20
-1.033487955729167
 30
0.0
 10
3.115003797743055
 20
-0.6934611002604166
 30
0.0
 10
3.115003797743055
 20
-0.6934611002604166
 30
0.0
 10
3.115003797743055
 20
-0.6934611002604166
 30
0.0
 10
2.970987955729167
 20
-0.6934611002604166
 30
0.0
 10
2.970987955729167
 20
-0.6934611002604166
 30
0.0
 10
2.970987955729167
 20
-0.6934611002604166
 30
0.0
 10
3.042995876736111
 20
-1.033487955729167
 30
0.0
 10
3.042995876736111
 20
-1.033487955729167
 30
0.0
 10
3.045003255208333
 20
-1.044487847222222
 30
0.0
 10
3.0469970703125
 20
-1.055487738715278
 30
0.0
 10
3.0469970703125
 20
-1.064493815104167
 30
0.0
 10
3.0469970703125
 20
-1.086493598090278
 30
0.0
 10
3.037000868055555
 20
-1.102491590711806
 30
0.0
 10
2.996988932291667
 20
-1.102491590711806
 30
0.0
 10
2.975489298502616
 20
-1.102491590711806
 30
0.0
 10
2.950523376464844
 20
-1.086273193359375
 30
0.0
 10
2.925813462999145
 20
-1.066336737738715
 30
0.0
 10
2.917891608344184
 20
-0.9940524631076388
 30
0.0
 10
2.87349870469835
 20
-0.8116751776801214
 30
0.0
 10
2.8580322265625
 20
-0.73345947265625
 30
0.0
 10
2.8580322265625
 20
-0.73345947265625
 30
0.0
 10
2.891031901041667
 20
-0.73345947265625
 30
0.0
 10
2.891031901041667
 20
-0.73345947265625
 30
0.0
 10
2.891031901041667
 20
-0.73345947265625
 30
0.0
 10
2.883029513888889
 20
-0.6934611002604166
 30
0.0
 10
2.883029513888889
 20
-0.6934611002604166
 30
0.0
 10
2.883029513888889
 20
-0.6934611002604166
 30
0.0
 10
2.850029839409722
 20
-0.6934611002604166
 30
0.0
 10
2.850029839409722
 20
-0.6934611002604166
 30
0.0
 10
2.850029839409722
 20
-0.6934611002604166
 30
0.0
 10
2.820027669270833
 20
-0.555447048611111
 30
0.0
 10
2.820027669270833
 20
-0.555447048611111
 30
0.0
 10
2.820027669270833
 20
-0.555447048611111
 30
0.0
 10
2.672010633680555
 20
-0.5354478624131944
 30
0.0
 10
2.672010633680555
 20
-0.5354478624131944
 30
0.0
 10
2.672010633680555
 20
-0.5354478624131944
 30
0.0
 10
2.68701171875
 20
-0.6034478081597222
 30
0.0
 10
2.706013997395833
 20
-0.6934611002604166
 30
0.0
 10
2.706013997395833
 20
-0.6934611002604166
 30
0.0
 10
2.646009657118055
 20
-0.6934611002604166
 30
0.0
 10
2.646009657118055
 20
-0.6934611002604166
 30
0.0
 10
2.646009657118055
 20
-0.6934611002604166
 30
0.0
 10
2.654012044270833
 20
-0.73345947265625
 30
0.0
 10
2.654012044270833
 20
-0.73345947265625
 30
0.0
 10
2.654012044270833
 20
-0.73345947265625
 30
0.0
 10
2.714016384548611
 20
-0.73345947265625
 30
0.0
 10
2.714016384548611
 20
-0.73345947265625
 30
0.0
 10
2.783026801215278
 20
-1.049492730034722
 30
0.0
 10
2.782023111979167
 20
-1.059488932291667
 30
0.0
 10
2.782023111979167
 20
-1.064493815104167
 30
0.0
 10
2.782023111979167
 20
-1.087490505642361
 30
0.0
 10
2.772026909722222
 20
-1.102491590711806
 30
0.0
 10
2.732028537326389
 20
-1.102491590711806
 30
0.0
 10
2.704508463541667
 20
-1.102491590711806
 30
0.0
 10
2.671316358778212
 20
-1.075998094346788
 30
0.0
 10
2.6402587890625
 20
-1.049042595757378
 30
0.0
 10
2.6402587890625
 20
-1.049042595757378
 30
0.0
 10
2.526055230034722
 20
-0.5134412977430556
 30
0.0
 10
2.526055230034722
 20
-0.5134412977430556
 30
0.0
 10
2.526055230034722
 20
-0.5134412977430556
 30
0.0
 10
2.378038194444444
 20
-0.4934421115451388
 30
0.0
 10
2.378038194444444
 20
-0.4934421115451388
 30
0.0
 10
2.378038194444444
 20
-0.4934421115451388
 30
0.0
 10
2.432047526041667
 20
-0.7464599609375
 30
0.0
 10
2.432047526041667
 20
-0.7464599609375
 30
0.0
 10
2.391045464409722
 20
-0.7174614800347222
 30
0.0
 10
2.345038519965278
 20
-0.6934611002604166
 30
0.0
 10
2.302029079861111
 20
-0.6934611002604166
 30
0.0
 10
2.248033311631944
 20
-0.6934611002604166
 30
0.0
 10
2.187025282118055
 20
-0.75146484375
 30
0.0
 10
2.187025282118055
 20
-0.8184678819444444
 30
0.0
 10
2.187025282118055
 20
-0.8264702690972222
 30
0.0
 10
2.187025282118055
 20
-0.83447265625
 30
0.0
 10
2.189019097222222
 20
-0.84246826171875
 30
0.0
 10
2.189019097222222
 20
-0.84246826171875
 30
0.0
 10
2.230021158854167
 20
-1.033487955729167
 30
0.0
 10
2.230021158854167
 20
-1.033487955729167
 30
0.0
 10
2.2330322265625
 20
-1.045491536458333
 30
0.0
 10
2.235026041666667
 20
-1.056491427951389
 30
0.0
 10
2.235026041666667
 20
-1.06549072265625
 30
0.0
 10
2.235026041666667
 20
-1.087490505642361
 30
0.0
 10
2.224026150173611
 20
-1.102491590711806
 30
0.0
 10
2.185017903645833
 20
-1.102491590711806
 30
0.0
 10
2.164276123046875
 20
-1.102491590711806
 30
0.0
 10
2.140309651692708
 20
-1.087398952907986
 30
0.0
 10
2.11645762125651
 20
-1.068435668945312
 30
0.0
 10
2.11645762125651
 20
-1.068435668945312
 30
0.0
 10
2.021050347222222
 20
-0.6144544813368055
 30
0.0
 10
2.021050347222222
 20
-0.6144544813368055
 30
0.0
 10
1.991048177083333
 20
-0.4714423285590277
 30
0.0
 10
1.905042860243055
 20
-0.4444376627604166
 30
0.0
 10
1.839043511284722
 20
-0.4444376627604166
 30
0.0
 10
1.778035481770833
 20
-0.4444376627604166
 30
0.0
 10
1.721028645833333
 20
-0.4874403211805555
 30
0.0
 10
1.721028645833333
 20
-0.5524495442708333
 30
0.0
 10
1.721028645833333
 20
-0.568447536892361
 30
0.0
 10
1.722032335069444
 20
-0.581448025173611
 30
0.0
 10
1.724026150173611
 20
-0.5934516059027778
 30
0.0
 10
1.724026150173611
 20
-0.5934516059027778
 30
0.0
 10
1.771036783854167
 20
-0.5934516059027778
 30
0.0
 10
1.771036783854167
 20
-0.5934516059027778
 30
0.0
 10
1.770033094618055
 20
-0.5834486219618055
 30
0.0
 10
1.769029405381944
 20
-0.5754462348090278
 30
0.0
 10
1.769029405381944
 20
-0.5664469401041666
 30
0.0
 10
1.769029405381944
 20
-0.5434434678819444
 30
0.0
 10
1.787027994791667
 20
-0.5324435763888888
 30
0.0
 10
1.807033962673611
 20
-0.5324435763888888
 30
0.0
 10
1.829033745659722
 20
-0.5324435763888888
 30
0.0
 10
1.860039605034722
 20
-0.5444471571180556
 30
0.0
 10
1.875040690104167
 20
-0.6114501953125
 30
0.0
 10
1.875040690104167
 20
-0.6114501953125
 30
0.0
 10
1.893039279513889
 20
-0.6934611002604166
 30
0.0
 10
1.893039279513889
 20
-0.6934611002604166
 30
0.0
 10
1.893039279513889
 20
-0.6934611002604166
 30
0.0
 10
1.618014865451389
 20
-0.6934611002604166
 30
0.0
 10
1.618014865451389
 20
-0.6934611002604166
 30
0.0
 10
1.618014865451389
 20
-0.6934611002604166
 30
0.0
 10
1.691026475694444
 20
-1.033487955729167
 30
0.0
 10
1.691026475694444
 20
-1.033487955729167
 30
0.0
 10
1.694023980034722
 20
-1.044487847222222
 30
0.0
 10
1.696017795138889
 20
-1.055487738715278
 30
0.0
 10
1.696017795138889
 20
-1.06549072265625
 30
0.0
 10
1.696017795138889
 20
-1.087490505642361
 30
0.0
 10
1.685017903645833
 20
-1.102491590711806
 30
0.0
 10
1.646023220486111
 20
-1.102491590711806
 30
0.0
 10
1.625013563368055
 20
-1.102491590711806
 30
0.0
 10
1.599012586805555
 20
-1.086493598090278
 30
0.0
 10
1.574015299479167
 20
-1.066487630208333
 30
0.0
 10
1.574015299479167
 20
-1.056491427951389
 30
0.0
 10
1.572007921006944
 20
-1.045491536458333
 30
0.0
 10
1.569010416666667
 20
-1.033487955729167
 30
0.0
 10
1.569010416666667
 20
-1.033487955729167
 30
0.0
 10
1.497002495659722
 20
-0.6934611002604166
 30
0.0
 10
1.497002495659722
 20
-0.6934611002604166
 30
0.0
 10
1.497002495659722
 20
-0.6934611002604166
 30
0.0
 10
1.351996527777778
 20
-0.6934611002604166
 30
0.0
 10
1.351996527777778
 20
-0.6934611002604166
 30
0.0
 10
1.351996527777778
 20
-0.6934611002604166
 30
0.0
 10
1.424994574652778
 20
-1.033487955729167
 30
0.0
 10
1.424994574652778
 20
-1.033487955729167
 30
0.0
 10
1.428005642361111
 20
-1.044487847222222
 30
0.0
 10
1.429999457465278
 20
-1.055487738715278
 30
0.0
 10
1.429999457465278
 20
-1.06549072265625
 30
0.0
 10
1.429999457465278
 20
-1.087490505642361
 30
0.0
 10
1.418999565972222
 20
-1.102491590711806
 30
0.0
 10
1.379991319444444
 20
-1.102491590711806
 30
0.0
 10
1.359472486707899
 20
-1.102491590711806
 30
0.0
 10
1.335796780056423
 20
-1.087727864583333
 30
0.0
 10
1.312201605902778
 20
-1.06905280219184
 30
0.0
 10
1.311370849609375
 20
-1.057390001085069
 30
0.0
 10
1.309902615017361
 20
-1.045505947536892
 30
0.0
 10
1.307074652777778
 20
-1.033487955729167
 30
0.0
 10
1.307074652777778
 20
-1.033487955729167
 30
0.0
 10
1.197062174479167
 20
-0.5134412977430556
 30
0.0
 10
1.197062174479167
 20
-0.5134412977430556
 30
0.0
 10
1.197062174479167
 20
-0.5134412977430556
 30
0.0
 10
1.049058702256944
 20
-0.4934421115451388
 30
0.0
 10
1.049058702256944
 20
-0.4934421115451388
 30
0.0
 10
1.049058702256944
 20
-0.4934421115451388
 30
0.0
 10
1.1640625
 20
-1.033487955729167
 30
0.0
 10
1.1640625
 20
-1.033487955729167
 30
0.0
 10
1.167060004340278
 20
-1.045491536458333
 30
0.0
 10
1.1690673828125
 20
-1.056491427951389
 30
0.0
 10
1.1690673828125
 20
-1.067491319444444
 30
0.0
  0
SPLINE
  5
51
330
42
100
AcDbEntity
  8
Layer 3
 62
   179
420
  2301728
370
    35
100
AcDbSpline
210
0.0
220
0.0
230
1.0
 70
    11
 71
     3
 72
    17
 73
    13
 74
     0
 42
0.0000000001
 43
0.0000000001
 12
1.0
 22
0.0
 32
0.0
 13
1.0
 23
0.0
 33
0.0
 40
0.0
 40
0.0
 40
0.0
 40
0.0
 40
1.0
 40
1.0
 40
1.0
 40
2.0
 40
2.0
 40
2.0
 40
3.0
 40
3.0
 40
3.0
 40
4.0
 40
4.0
 40
4.0
 40
4.0
 10
2.259073893229167
 20
-1.321512858072917
 30
0.0
 10
2.259073893229167
 20
-1.335517035590278
 30
0.0
 10
2.241075303819444
 20
-1.354512532552083
 30
0.0
 10
2.219075520833333
 20
-1.354512532552083
 30
0.0
 10
2.199069552951389
 20
-1.354512532552083
 30
0.0
 10
2.172064887152778
 20
-1.335517035590278
 30
0.0
 10
2.160061306423611
 20
-1.276509602864583
 30
0.0
 10
2.160061306423611
 20
-1.276509602864583
 30
0.0
 10
2.148057725694444
 20
-1.218505859375
 30
0.0
 10
2.148057725694444
 20
-1.218505859375
 30
0.0
 10
2.211073133680555
 20
-1.239508734809028
 30
0.0
 10
2.259073893229167
 20
-1.267510308159722
 30
0.0
 10
2.259073893229167
 20
-1.321512858072917
 30
0.0
  0
SPLINE
  5
52
330
42
100
AcDbEntity
  8
Layer 3
 62
   179
420
  2301728
370
    35
100
AcDbSpline
210
0.0
220
0.0
230
1.0
 70
    11
 71
     3
 72
   140
 73
   136
 74
     0
 42
0.0000000001
 43
0.0000000001
 12
1.0
 22
0.0
 32
0.0
 13
1.0
 23
0.0
 33
0.0
 40
0.0
 40
0.0
 40
0.0
 40
0.0
 40
1.0
 40
1.0
 40
1.0
 40
2.0
 40
2.0
 40
2.0
 40
3.0
 40
3.0
 40
3.0
 40
4.0
 40
4.0
 40
4.0
 40
5.0
 40
5.0
 40
5.0
 40
6.0
 40
6.0
 40
6.0
 40
7.0
 40
7.0
 40
7.0
 40
8.0
 40
8.0
 40
8.0
 40
9.0
 40
9.0
 40
9.0
 40
10.0
 40
10.0
 40
10.0
 40
11.0
 40
11.0
 40
11.0
 40
12.0
 40
12.0
 40
12.0
 40
13.0
 40
13.0
 40
13.0
 40
14.0
 40
14.0
 40
14.0
 40
15.0
 40
15.0
 40
15.0
 40
16.0
 40
16.0
 40
16.0
 40
17.0
 40
17.0
 40
17.0
 40
18.0
 40
18.0
 40
18.0
 40
19.0
 40
19.0
 40
19.0
 40
20.0
 40
20.0
 40
20.0
 40
21.0
 40
21.0
 40
21.0
 40
22.0
 40
22.0
 40
22.0
 40
23.0
 40
23.0
 40
23.0
 40
24.0
 40
24.0
 40
24.0
 40
25.0
 40
25.0
 40
25.0
 40
26.0
 40
26.0
 40
26.0
 40
27.0
 40
27.0
 40
27.0
 40
28.0
 40
28.0
 40
28.0
 40
29.0
 40
29.0
 40
29.0
 40
30.0
 40
30.0
 40
30.0
 40
31.0
 40
31.0
 40
31.0
 40
32.0
 40
32.0
 40
32.0
 40
33.0
 40
33.0
 40
33.0
 40
34.0
 40
34.0
 40
34.0
 40
35.0
 40
35.0
 40
35.0
 40
36.0
 40
36.0
 40
36.0
 40
37.0
 40
37.0
 40
37.0
 40
38.0
 40
38.0
 40
38.0
 40
39.0
 40
39.0
 40
39.0
 40
40.0
 40
40.0
 40
40.0
 40
41.0
 40
41.0
 40
41.0
 40
42.0
 40
42.0
 40
42.0
 40
43.0
 40
43.0
 40
43.0
 40
44.0
 40
44.0
 40
44.0
 40
45.0
 40
45.0
 40
45.0
 40
45.0
 10
9.07290310329861
 20
-1.894463433159722
 30
0.0
 10
9.048895941840277
 20
-1.894463433159722
 30
0.0
 10
9.023898654513888
 20
-1.904459635416667
 30
0.0
 10
9.00588650173611
 20
-1.919460720486111
 30
0.0
 10
9.00588650173611
 20
-1.919460720486111
 30
0.0
 10
8.999891493055555
 20
-1.893459743923611
 30
0.0
 10
8.999891493055555
 20
-1.893459743923611
 30
0.0
 10
8.999891493055555
 20
-1.893459743923611
 30
0.0
 10
8.855875651041666
 20
-1.893459743923611
 30
0.0
 10
8.855875651041666
 20
-1.893459743923611
 30
0.0
 10
8.855875651041666
 20
-1.893459743923611
 30
0.0
 10
8.927897135416666
 20
-2.233479817708333
 30
0.0
 10
8.927897135416666
 20
-2.233479817708333
 30
0.0
 10
8.929890950520832
 20
-2.244493272569444
 30
0.0
 10
8.931884765625
 20
-2.2554931640625
 30
0.0
 10
8.931884765625
 20
-2.264485677083333
 30
0.0
 10
8.931884765625
 20
-2.286485460069444
 30
0.0
 10
8.921888563368055
 20
-2.302490234375
 30
0.0
 10
8.881890190972221
 20
-2.302490234375
 30
0.0
 10
8.864640129937065
 20
-2.302490234375
 30
0.0
 10
8.845159742567274
 20
-2.292057461208767
 30
0.0
 10
8.825374179416233
 20
-2.277650621202257
 30
0.0
 10
8.825374179416233
 20
-2.277650621202257
 30
0.0
 10
8.74392339022102
 20
-1.893459743923611
 30
0.0
 10
8.74392339022102
 20
-1.893459743923611
 30
0.0
 10
8.74392339022102
 20
-1.893459743923611
 30
0.0
 10
8.599907769097221
 20
-1.893459743923611
 30
0.0
 10
8.599907769097221
 20
-1.893459743923611
 30
0.0
 10
8.599907769097221
 20
-1.893459743923611
 30
0.0
 10
8.61191134982639
 20
-1.947455512152778
 30
0.0
 10
8.61191134982639
 20
-1.947455512152778
 30
0.0
 10
8.570909288194445
 20
-1.917453342013889
 30
0.0
 10
8.52490234375
 20
-1.893459743923611
 30
0.0
 10
8.480902777777777
 20
-1.893459743923611
 30
0.0
 10
8.426893446180555
 20
-1.893459743923611
 30
0.0
 10
8.365885416666666
 20
-1.951456705729167
 30
0.0
 10
8.365885416666666
 20
-2.018473307291667
 30
0.0
 10
8.365885416666666
 20
-2.026462131076389
 30
0.0
 10
8.365885416666666
 20
-2.034464518229167
 30
0.0
 10
8.36789279513889
 20
-2.042466905381944
 30
0.0
 10
8.36789279513889
 20
-2.042466905381944
 30
0.0
 10
8.408894856770832
 20
-2.233479817708333
 30
0.0
 10
8.408894856770832
 20
-2.233479817708333
 30
0.0
 10
8.41189236111111
 20
-2.244493272569444
 30
0.0
 10
8.413899739583332
 20
-2.2554931640625
 30
0.0
 10
8.413899739583332
 20
-2.265489366319444
 30
0.0
 10
8.413899739583332
 20
-2.287489149305555
 30
0.0
 10
8.402886284722221
 20
-2.302490234375
 30
0.0
 10
8.3638916015625
 20
-2.302490234375
 30
0.0
 10
8.349372016059027
 20
-2.302490234375
 30
0.0
 10
8.338180541992188
 20
-2.298318650987413
 30
0.0
 10
8.327857123480902
 20
-2.291583591037326
 30
0.0
 10
8.328542921278212
 20
-2.285179138183594
 30
0.0
 10
8.328938802083332
 20
-2.278780619303385
 30
0.0
 10
8.328938802083332
 20
-2.272488064236111
 30
0.0
 10
8.328938802083332
 20
-2.100477430555555
 30
0.0
 10
8.266927083333332
 20
-1.894463433159722
 30
0.0
 10
8.06692165798611
 20
-1.894463433159722
 30
0.0
 10
8.042914496527777
 20
-1.894463433159722
 30
0.0
 10
8.01791720920139
 20
-1.905463324652778
 30
0.0
 10
7.999918619791666
 20
-1.919460720486111
 30
0.0
 10
7.999918619791666
 20
-1.919460720486111
 30
0.0
 10
7.955919053819444
 20
-1.713446723090278
 30
0.0
 10
7.955919053819444
 20
-1.713446723090278
 30
0.0
 10
7.955919053819444
 20
-1.713446723090278
 30
0.0
 10
7.808892144097221
 20
-1.693440755208333
 30
0.0
 10
7.808892144097221
 20
-1.693440755208333
 30
0.0
 10
7.808892144097221
 20
-1.693440755208333
 30
0.0
 10
7.923909505208333
 20
-2.233479817708333
 30
0.0
 10
7.923909505208333
 20
-2.233479817708333
 30
0.0
 10
7.926907009548611
 20
-2.2454833984375
 30
0.0
 10
7.928900824652778
 20
-2.256483289930555
 30
0.0
 10
7.928900824652778
 20
-2.267483181423611
 30
0.0
 10
7.928900824652778
 20
-2.288492838541667
 30
0.0
 10
7.9208984375
 20
-2.304497612847222
 30
0.0
 10
7.892903645833333
 20
-2.304497612847222
 30
0.0
 10
7.885904947916666
 20
-2.304497612847222
 30
0.0
 10
7.874905056423611
 20
-2.304497612847222
 30
0.0
 10
7.866902669270833
 20
-2.301486545138889
 30
0.0
 10
7.894911024305555
 20
-2.387505425347222
 30
0.0
 10
7.936903211805555
 20
-2.393500434027778
 30
0.0
 10
7.970920138888888
 20
-2.393500434027778
 30
0.0
 10
8.028917100694445
 20
-2.393500434027778
 30
0.0
 10
8.059922960069445
 20
-2.363498263888889
 30
0.0
 10
8.06991916232639
 20
-2.318495008680555
 30
0.0
 10
8.099921332465277
 20
-2.3594970703125
 30
0.0
 10
8.14492458767361
 20
-2.399495442708333
 30
0.0
 10
8.20492892795139
 20
-2.399495442708333
 30
0.0
 10
8.269996643066406
 20
-2.399495442708333
 30
0.0
 10
8.303761800130207
 20
-2.368236965603299
 30
0.0
 10
8.31880866156684
 20
-2.329740736219618
 30
0.0
 10
8.354352315266926
 20
-2.364247639973958
 30
0.0
 10
8.394332885742188
 20
-2.393500434027778
 30
0.0
 10
8.434895620249941
 20
-2.393500434027778
 30
0.0
 10
8.51291232638889
 20
-2.393500434027778
 30
0.0
 10
8.558905707465277
 20
-2.3594970703125
 30
0.0
 10
8.558905707465277
 20
-2.284491644965278
 30
0.0
 10
8.558905707465277
 20
-2.268486870659722
 30
0.0
 10
8.55691189236111
 20
-2.252482096354167
 30
0.0
 10
8.552910698784721
 20
-2.233479817708333
 30
0.0
 10
8.552910698784721
 20
-2.233479817708333
 30
0.0
 10
8.514906141493055
 20
-2.053466796875
 30
0.0
 10
8.514906141493055
 20
-2.053466796875
 30
0.0
 10
8.51291232638889
 20
-2.044474283854167
 30
0.0
 10
8.511908637152777
 20
-2.035468207465278
 30
0.0
 10
8.511908637152777
 20
-2.0274658203125
 30
0.0
 10
8.511908637152777
 20
-1.991468641493055
 30
0.0
 10
8.530897352430555
 20
-1.968465169270833
 30
0.0
 10
8.557915581597221
 20
-1.968465169270833
 30
0.0
 10
8.5819091796875
 20
-1.968465169270833
 30
0.0
 10
8.599907769097221
 20
-1.9754638671875
 30
0.0
 10
8.620917426215277
 20
-1.989461263020833
 30
0.0
 10
8.620917426215277
 20
-1.989461263020833
 30
0.0
 10
8.705919053819445
 20
-2.393500434027778
 30
0.0
 10
8.705919053819445
 20
-2.393500434027778
 30
0.0
 10
8.705919053819445
 20
-2.393500434027778
 30
0.0
 10
8.849934895833332
 20
-2.393500434027778
 30
0.0
 10
8.849934895833332
 20
-2.393500434027778
 30
0.0
 10
8.849934895833332
 20
-2.393500434027778
 30
0.0
 10
8.837355719672308
 20
-2.334166632758246
 30
0.0
 10
8.837355719672308
 20
-2.334166632758246
 30
0.0
 10
8.876822577582464
 20
-2.367301093207465
 30
0.0
 10
8.91829087999132
 20
-2.393500434027778
 30
0.0
 10
8.952880859375
 20
-2.393500434027778
 30
0.0
 10
9.017903645833332
 20
-2.393500434027778
 30
0.0
 10
9.061903211805555
 20
-2.369493272569444
 30
0.0
 10
9.074896918402777
 20
-2.317491319444444
 30
0.0
 10
9.104899088541666
 20
-2.358493381076389
 30
0.0
 10
9.14990234375
 20
-2.399495442708333
 30
0.0
 10
9.210910373263888
 20
-2.399495442708333
 30
0.0
 10
9.30691189236111
 20
-2.399495442708333
 30
0.0
 10
9.334920247395832
 20
-2.331488715277778
 30
0.0
 10
9.334920247395832
 20
-2.272488064236111
 30
0.0
 10
9.334920247395832
 20
-2.100477430555555
 30
0.0
 10
9.272922092013888
 20
-1.894463433159722
 30
0.0
 10
9.07290310329861
 20
-1.894463433159722
 30
0.0
  0
SPLINE
  5
53
330
42
100
AcDbEntity
  8
Layer 3
 62
   179
420
  2301728
370
    35
100
AcDbSpline
210
0.0
220
0.0
230
1.0
 70
    11
 71
     3
 72
    23
 73
    19
 74
     0
 42
0.0000000001
 43
0.0000000001
 12
1.0
 22
0.0
 32
0.0
 13
1.0
 23
0.0
 33
0.0
 40
0.0
 40
0.0
 40
0.0
 40
0.0
 40
1.0
 40
1.0
 40
1.0
 40
2.0
 40
2.0
 40
2.0
 40
3.0
 40
3.0
 40
3.0
 40
4.0
 40
4.0
 40
4.0
 40
5.0
 40
5.0
 40
5.0
 40
6.0
 40
6.0
 40
6.0
 40
6.0
 10
8.135932074652777
 20
-2.316487630208333
 30
0.0
 10
8.112928602430555
 20
-2.316487630208333
 30
0.0
 10
8.0919189453125
 20
-2.294487847222222
 30
0.0
 10
8.072916666666666
 20
-2.267483181423611
 30
0.0
 10
8.071912977430555
 20
-2.256483289930555
 30
0.0
 10
8.06991916232639
 20
-2.2454833984375
 30
0.0
 10
8.06692165798611
 20
-2.233479817708333
 30
0.0
 10
8.06692165798611
 20
-2.233479817708333
 30
0.0
 10
8.00991482204861
 20
-1.967461480034722
 30
0.0
 10
8.00991482204861
 20
-1.967461480034722
 30
0.0
 10
8.02590603298611
 20
-1.9544677734375
 30
0.0
 10
8.044921875
 20
-1.950466579861111
 30
0.0
 10
8.058919270833332
 20
-1.950466579861111
 30
0.0
 10
8.133924696180555
 20
-1.950466579861111
 30
0.0
 10
8.193929036458332
 20
-2.109469943576389
 30
0.0
 10
8.193929036458332
 20
-2.2454833984375
 30
0.0
 10
8.193929036458332
 20
-2.305487738715278
 30
0.0
 10
8.160929361979166
 20
-2.316487630208333
 30
0.0
 10
8.135932074652777
 20
-2.316487630208333
 30
0.0
  0
SPLINE
  5
54
330
42
100
AcDbEntity
  8
Layer 3
 62
   179
420
  2301728
370
    35
100
AcDbSpline
210
0.0
220
0.0
230
1.0
 70
    11
 71
     3
 72
    23
 73
    19
 74
     0
 42
0.0000000001
 43
0.0000000001
 12
1.0
 22
0.0
 32
0.0
 13
1.0
 23
0.0
 33
0.0
 40
0.0
 40
0.0
 40
0.0
 40
0.0
 40
1.0
 40
1.0
 40
1.0
 40
2.0
 40
2.0
 40
2.0
 40
3.0
 40
3.0
 40
3.0
 40
4.0
 40
4.0
 40
4.0
 40
5.0
 40
5.0
 40
5.0
 40
6.0
 40
6.0
 40
6.0
 40
6.0
 10
9.141899956597221
 20
-2.316487630208333
 30
0.0
 10
9.118896484375
 20
-2.316487630208333
 30
0.0
 10
9.096896701388888
 20
-2.294487847222222
 30
0.0
 10
9.07790798611111
 20
-2.266493055555555
 30
0.0
 10
9.076904296875
 20
-2.256483289930555
 30
0.0
 10
9.074896918402777
 20
-2.2454833984375
 30
0.0
 10
9.0718994140625
 20
-2.233479817708333
 30
0.0
 10
9.0718994140625
 20
-2.233479817708333
 30
0.0
 10
9.01589626736111
 20
-1.968465169270833
 30
0.0
 10
9.01589626736111
 20
-1.968465169270833
 30
0.0
 10
9.031901041666666
 20
-1.9544677734375
 30
0.0
 10
9.050889756944445
 20
-1.950466579861111
 30
0.0
 10
9.064900716145832
 20
-1.950466579861111
 30
0.0
 10
9.139906141493055
 20
-1.950466579861111
 30
0.0
 10
9.199910481770832
 20
-2.109469943576389
 30
0.0
 10
9.199910481770832
 20
-2.2454833984375
 30
0.0
 10
9.199910481770832
 20
-2.305487738715278
 30
0.0
 10
9.166910807291666
 20
-2.316487630208333
 30
0.0
 10
9.141899956597221
 20
-2.316487630208333
 30
0.0
  0
SPLINE
  5
55
330
42
100
AcDbEntity
  8
Layer 3
 62
   179
420
  2301728
370
    35
100
AcDbSpline
210
0.0
220
0.0
230
1.0
 70
    11
 71
     3
 72
   110
 73
   106
 74
     0
 42
0.0000000001
 43
0.0000000001
 12
1.0
 22
0.0
 32
0.0
 13
1.0
 23
0.0
 33
0.0
 40
0.0
 40
0.0
 40
0.0
 40
0.0
 40
1.0
 40
1.0
 40
1.0
 40
2.0
 40
2.0
 40
2.0
 40
3.0
 40
3.0
 40
3.0
 40
4.0
 40
4.0
 40
4.0
 40
5.0
 40
5.0
 40
5.0
 40
6.0
 40
6.0
 40
6.0
 40
7.0
 40
7.0
 40
7.0
 40
8.0
 40
8.0
 40
8.0
 40
9.0
 40
9.0
 40
9.0
 40
10.0
 40
10.0
 40
10.0
 40
11.0
 40
11.0
 40
11.0
 40
12.0
 40
12.0
 40
12.0
 40
13.0
 40
13.0
 40
13.0
 40
14.0
 40
14.0
 40
14.0
 40
15.0
 40
15.0
 40
15.0
 40
16.0
 40
16.0
 40
16.0
 40
17.0
 40
17.0
 40
17.0
 40
18.0
 40
18.0
 40
18.0
 40
19.0
 40
19.0
 40
19.0
 40
20.0
 40
20.0
 40
20.0
 40
21.0
 40
21.0
 40
21.0
 40
22.0
 40
22.0
 40
22.0
 40
23.0
 40
23.0
 40
23.0
 40
24.0
 40
24.0
 40
24.0
 40
25.0
 40
25.0
 40
25.0
 40
26.0
 40
26.0
 40
26.0
 40
27.0
 40
27.0
 40
27.0
 40
28.0
 40
28.0
 40
28.0
 40
29.0
 40
29.0
 40
29.0
 40
30.0
 40
30.0
 40
30.0
 40
31.0
 40
31.0
 40
31.0
 40
32.0
 40
32.0
 40
32.0
 40
33.0
 40
33.0
 40
33.0
 40
34.0
 40
34.0
 40
34.0
 40
35.0
 40
35.0
 40
35.0
 40
35.0
 10
7.514946831597221
 20
-1.713446723090278
 30
0.0
 10
7.514946831597221
 20
-1.713446723090278
 30
0.0
 10
7.366943359375
 20
-1.693440755208333
 30
0.0
 10
7.366943359375
 20
-1.693440755208333
 30
0.0
 10
7.366943359375
 20
-1.693440755208333
 30
0.0
 10
7.481947157118055
 20
-2.233479817708333
 30
0.0
 10
7.481947157118055
 20
-2.233479817708333
 30
0.0
 10
7.484944661458333
 20
-2.248494466145833
 30
0.0
 10
7.486952039930555
 20
-2.257486979166667
 30
0.0
 10
7.486952039930555
 20
-2.265489366319444
 30
0.0
 10
7.486952039930555
 20
-2.287489149305555
 30
0.0
 10
7.475938585069444
 20
-2.302490234375
 30
0.0
 10
7.436930338541666
 20
-2.302490234375
 30
0.0
 10
7.412968953450521
 20
-2.302490234375
 30
0.0
 10
7.384693569607204
 20
-2.282354566786024
 30
0.0
 10
7.357265896267361
 20
-2.259349399142795
 30
0.0
 10
7.356267293294271
 20
-2.251163906521267
 30
0.0
 10
7.354868570963541
 20
-2.242580837673611
 30
0.0
 10
7.352945963541666
 20
-2.233479817708333
 30
0.0
 10
7.352945963541666
 20
-2.233479817708333
 30
0.0
 10
7.280951605902778
 20
-1.893459743923611
 30
0.0
 10
7.280951605902778
 20
-1.893459743923611
 30
0.0
 10
7.280951605902778
 20
-1.893459743923611
 30
0.0
 10
7.136935763888888
 20
-1.893459743923611
 30
0.0
 10
7.136935763888888
 20
-1.893459743923611
 30
0.0
 10
7.136935763888888
 20
-1.893459743923611
 30
0.0
 10
7.208930121527778
 20
-2.233479817708333
 30
0.0
 10
7.208930121527778
 20
-2.233479817708333
 30
0.0
 10
7.210937317836397
 20
-2.244493272569444
 30
0.0
 10
7.212944878472221
 20
-2.2554931640625
 30
0.0
 10
7.212944878472221
 20
-2.264485677083333
 30
0.0
 10
7.212944878472221
 20
-2.286485460069444
 30
0.0
 10
7.202935112847221
 20
-2.302490234375
 30
0.0
 10
7.162936740451388
 20
-2.302490234375
 30
0.0
 10
7.137531704372829
 20
-2.302490234375
 30
0.0
 10
7.107288784450954
 20
-2.279891120062934
 30
0.0
 10
7.078346252441406
 20
-2.255205790201823
 30
0.0
 10
7.078346252441406
 20
-2.255205790201823
 30
0.0
 10
6.984944661458333
 20
-1.814453125
 30
0.0
 10
6.984944661458333
 20
-1.814453125
 30
0.0
 10
6.954942491319444
 20
-1.671440972222222
 30
0.0
 10
6.868937174479166
 20
-1.644436306423611
 30
0.0
 10
6.802924262152778
 20
-1.644436306423611
 30
0.0
 10
6.741916232638888
 20
-1.644436306423611
 30
0.0
 10
6.684922960069444
 20
-1.687445746527778
 30
0.0
 10
6.684922960069444
 20
-1.752454969618055
 30
0.0
 10
6.684922960069444
 20
-1.768446180555555
 30
0.0
 10
6.685926649305555
 20
-1.781453450520833
 30
0.0
 10
6.687920464409721
 20
-1.793443467881944
 30
0.0
 10
6.687920464409721
 20
-1.793443467881944
 30
0.0
 10
6.734917534722221
 20
-1.793443467881944
 30
0.0
 10
6.734917534722221
 20
-1.793443467881944
 30
0.0
 10
6.733927408854166
 20
-1.783447265625
 30
0.0
 10
6.732923719618055
 20
-1.775444878472222
 30
0.0
 10
6.732923719618055
 20
-1.766452365451389
 30
0.0
 10
6.732923719618055
 20
-1.743448893229167
 30
0.0
 10
6.750922309027778
 20
-1.732449001736111
 30
0.0
 10
6.770928276909721
 20
-1.732449001736111
 30
0.0
 10
6.792928059895833
 20
-1.732449001736111
 30
0.0
 10
6.826931423611111
 20
-1.747450086805555
 30
0.0
 10
6.840928819444444
 20
-1.814453125
 30
0.0
 10
6.840928819444444
 20
-1.814453125
 30
0.0
 10
6.857937282986111
 20
-1.893459743923611
 30
0.0
 10
6.857937282986111
 20
-1.893459743923611
 30
0.0
 10
6.857937282986111
 20
-1.893459743923611
 30
0.0
 10
6.784939236111111
 20
-1.893459743923611
 30
0.0
 10
6.784939236111111
 20
-1.893459743923611
 30
0.0
 10
6.784939236111111
 20
-1.893459743923611
 30
0.0
 10
6.791937934027778
 20
-1.933458116319444
 30
0.0
 10
6.791937934027778
 20
-1.933458116319444
 30
0.0
 10
6.791937934027778
 20
-1.933458116319444
 30
0.0
 10
6.865939670138888
 20
-1.933458116319444
 30
0.0
 10
6.865939670138888
 20
-1.933458116319444
 30
0.0
 10
6.865939670138888
 20
-1.933458116319444
 30
0.0
 10
6.980943467881944
 20
-2.4735107421875
 30
0.0
 10
6.980943467881944
 20
-2.4735107421875
 30
0.0
 10
7.011949327256944
 20
-2.616522894965278
 30
0.0
 10
7.094957139756944
 20
-2.643527560763889
 30
0.0
 10
7.159966362847221
 20
-2.643527560763889
 30
0.0
 10
7.220974392361111
 20
-2.643527560763889
 30
0.0
 10
7.277967664930555
 20
-2.600518120659722
 30
0.0
 10
7.277967664930555
 20
-2.535508897569444
 30
0.0
 10
7.277967664930555
 20
-2.443508572048611
 30
0.0
 10
7.200968424479166
 20
-2.414496527777778
 30
0.0
 10
7.10595703125
 20
-2.385498046875
 30
0.0
 10
7.10595703125
 20
-2.385498046875
 30
0.0
 10
7.089669969346788
 20
-2.308640374077691
 30
0.0
 10
7.089669969346788
 20
-2.308640374077691
 30
0.0
 10
7.136968824598524
 20
-2.352790832519531
 30
0.0
 10
7.190792507595486
 20
-2.393500434027778
 30
0.0
 10
7.233940972222221
 20
-2.393500434027778
 30
0.0
 10
7.30424584282769
 20
-2.393500434027778
 30
0.0
 10
7.350243462456596
 20
-2.365048726399739
 30
0.0
 10
7.357745700412326
 20
-2.303048875596788
 30
0.0
 10
7.406432257758246
 20
-2.349298265245225
 30
0.0
 10
7.462977939181857
 20
-2.393500434027778
 30
0.0
 10
7.507948133680555
 20
-2.393500434027778
 30
0.0
 10
7.5849609375
 20
-2.393500434027778
 30
0.0
 10
7.6319580078125
 20
-2.3594970703125
 30
0.0
 10
7.6319580078125
 20
-2.284491644965278
 30
0.0
 10
7.6319580078125
 20
-2.269490559895833
 30
0.0
 10
7.629964192708333
 20
-2.252482096354167
 30
0.0
 10
7.625949435763888
 20
-2.233479817708333
 30
0.0
 10
7.625949435763888
 20
-2.233479817708333
 30
0.0
 10
7.514946831597221
 20
-1.713446723090278
 30
0.0
 10
7.514946831597221
 20
-1.713446723090278
 30
0.0
  0
SPLINE
  5
56
330
42
100
AcDbEntity
  8
Layer 3
 62
   179
420
  2301728
370
    35
100
AcDbSpline
210
0.0
220
0.0
230
1.0
 70
    11
 71
     3
 72
    17
 73
    13
 74
     0
 42
0.0000000001
 43
0.0000000001
 12
1.0
 22
0.0
 32
0.0
 13
1.0
 23
0.0
 33
0.0
 40
0.0
 40
0.0
 40
0.0
 40
0.0
 40
1.0
 40
1.0
 40
1.0
 40
2.0
 40
2.0
 40
2.0
 40
3.0
 40
3.0
 40
3.0
 40
4.0
 40
4.0
 40
4.0
 40
4.0
 10
7.222968207465278
 20
-2.521511501736111
 30
0.0
 10
7.222968207465278
 20
-2.535508897569444
 30
0.0
 10
7.204969618055555
 20
-2.554511176215278
 30
0.0
 10
7.182969835069444
 20
-2.554511176215278
 30
0.0
 10
7.161960177951388
 20
-2.554511176215278
 30
0.0
 10
7.138970269097221
 20
-2.535508897569444
 30
0.0
 10
7.125949435763888
 20
-2.476508246527778
 30
0.0
 10
7.125949435763888
 20
-2.476508246527778
 30
0.0
 10
7.112955729166666
 20
-2.418497721354167
 30
0.0
 10
7.112955729166666
 20
-2.418497721354167
 30
0.0
 10
7.175971137152778
 20
-2.439507378472222
 30
0.0
 10
7.222968207465278
 20
-2.467502170138889
 30
0.0
 10
7.222968207465278
 20
-2.521511501736111
 30
0.0
  0
SPLINE
  5
57
330
42
100
AcDbEntity
  8
Layer 3
 62
   179
420
  2301728
370
    35
100
AcDbSpline
210
0.0
220
0.0
230
1.0
 70
    11
 71
     3
 72
    17
 73
    13
 74
     0
 42
0.0000000001
 43
0.0000000001
 12
1.0
 22
0.0
 32
0.0
 13
1.0
 23
0.0
 33
0.0
 40
0.0
 40
0.0
 40
0.0
 40
0.0
 40
1.0
 40
1.0
 40
1.0
 40
2.0
 40
2.0
 40
2.0
 40
3.0
 40
3.0
 40
3.0
 40
4.0
 40
4.0
 40
4.0
 40
4.0
 10
7.261935763888888
 20
-1.761447482638889
 30
0.0
 10
7.261935763888888
 20
-1.717447916666667
 30
0.0
 10
7.226942274305555
 20
-1.681437174479167
 30
0.0
 10
7.182942708333333
 20
-1.681437174479167
 30
0.0
 10
7.138929578993055
 20
-1.681437174479167
 30
0.0
 10
7.102932400173611
 20
-1.717447916666667
 30
0.0
 10
7.102932400173611
 20
-1.761447482638889
 30
0.0
 10
7.102932400173611
 20
-1.805447048611111
 30
0.0
 10
7.138929578993055
 20
-1.8404541015625
 30
0.0
 10
7.182942708333333
 20
-1.8404541015625
 30
0.0
 10
7.226942274305555
 20
-1.8404541015625
 30
0.0
 10
7.261935763888888
 20
-1.805447048611111
 30
0.0
 10
7.261935763888888
 20
-1.761447482638889
 30
0.0
  0
SPLINE
  5
58
330
42
100
AcDbEntity
  8
Layer 3
 62
   179
420
  2301728
370
    35
100
AcDbSpline
210
0.0
220
0.0
230
1.0
 70
    11
 71
     3
 72
    29
 73
    25
 74
     0
 42
0.0000000001
 43
0.0000000001
 12
1.0
 22
0.0
 32
0.0
 13
1.0
 23
0.0
 33
0.0
 40
0.0
 40
0.0
 40
0.0
 40
0.0
 40
1.0
 40
1.0
 40
1.0
 40
2.0
 40
2.0
 40
2.0
 40
3.0
 40
3.0
 40
3.0
 40
4.0
 40
4.0
 40
4.0
 40
5.0
 40
5.0
 40
5.0
 40
6.0
 40
6.0
 40
6.0
 40
7.0
 40
7.0
 40
7.0
 40
8.0
 40
8.0
 40
8.0
 40
8.0
 10
6.594943576388888
 20
-1.884453667534722
 30
0.0
 10
6.512939453125
 20
-1.884453667534722
 30
0.0
 10
6.466932508680555
 20
-1.91845703125
 30
0.0
 10
6.466932508680555
 20
-1.988471137152778
 30
0.0
 10
6.466932508680555
 20
-2.1104736328125
 30
0.0
 10
6.597941080729166
 20
-2.180487738715278
 30
0.0
 10
6.692952473958333
 20
-2.192477756076389
 30
0.0
 10
6.6949462890625
 20
-2.208482530381944
 30
0.0
 10
6.695949978298611
 20
-2.223483615451389
 30
0.0
 10
6.695949978298611
 20
-2.235487196180555
 30
0.0
 10
6.695949978298611
 20
-2.301486545138889
 30
0.0
 10
6.662950303819444
 20
-2.321492513020833
 30
0.0
 10
6.623942057291666
 20
-2.321492513020833
 30
0.0
 10
6.576931423611111
 20
-2.321492513020833
 30
0.0
 10
6.536933051215278
 20
-2.294487847222222
 30
0.0
 10
6.495930989583333
 20
-2.257486979166667
 30
0.0
 10
6.495930989583333
 20
-2.365492078993055
 30
0.0
 10
6.582939995659721
 20
-2.393500434027778
 30
0.0
 10
6.682942708333333
 20
-2.393500434027778
 30
0.0
 10
6.778957790798611
 20
-2.393500434027778
 30
0.0
 10
6.830959743923611
 20
-2.320488823784722
 30
0.0
 10
6.830959743923611
 20
-2.234483506944444
 30
0.0
 10
6.830959743923611
 20
-2.107476128472222
 30
0.0
 10
6.776963975694444
 20
-1.884453667534722
 30
0.0
 10
6.594943576388888
 20
-1.884453667534722
 30
0.0
  0
SPLINE
  5
59
330
42
100
AcDbEntity
  8
Layer 3
 62
   179
420
  2301728
370
    35
100
AcDbSpline
210
0.0
220
0.0
230
1.0
 70
    11
 71
     3
 72
    14
 73
    10
 74
     0
 42
0.0000000001
 43
0.0000000001
 12
1.0
 22
0.0
 32
0.0
 13
1.0
 23
0.0
 33
0.0
 40
0.0
 40
0.0
 40
0.0
 40
0.0
 40
1.0
 40
1.0
 40
1.0
 40
2.0
 40
2.0
 40
2.0
 40
3.0
 40
3.0
 40
3.0
 40
3.0
 10
6.526936848958333
 20
-1.993462456597222
 30
0.0
 10
6.526936848958333
 20
-1.972466362847222
 30
0.0
 10
6.531928168402778
 20
-1.937459309895833
 30
0.0
 10
6.561930338541666
 20
-1.937459309895833
 30
0.0
 10
6.617947048611111
 20
-1.937459309895833
 30
0.0
 10
6.663953993055555
 20
-2.050469292534722
 30
0.0
 10
6.684950086805555
 20
-2.144476996527778
 30
0.0
 10
6.592936197916666
 20
-2.143473307291667
 30
0.0
 10
6.527940538194444
 20
-2.064466688368055
 30
0.0
 10
6.526936848958333
 20
-1.993462456597222
 30
0.0
  0
SPLINE
  5
5A
330
42
100
AcDbEntity
  8
Layer 3
 62
   179
420
  2301728
370
    35
100
AcDbSpline
210
0.0
220
0.0
230
1.0
 70
    11
 71
     3
 72
    71
 73
    67
 74
     0
 42
0.0000000001
 43
0.0000000001
 12
1.0
 22
0.0
 32
0.0
 13
1.0
 23
0.0
 33
0.0
 40
0.0
 40
0.0
 40
0.0
 40
0.0
 40
1.0
 40
1.0
 40
1.0
 40
2.0
 40
2.0
 40
2.0
 40
3.0
 40
3.0
 40
3.0
 40
4.0
 40
4.0
 40
4.0
 40
5.0
 40
5.0
 40
5.0
 40
6.0
 40
6.0
 40
6.0
 40
7.0
 40
7.0
 40
7.0
 40
8.0
 40
8.0
 40
8.0
 40
9.0
 40
9.0
 40
9.0
 40
10.0
 40
10.0
 40
10.0
 40
11.0
 40
11.0
 40
11.0
 40
12.0
 40
12.0
 40
12.0
 40
13.0
 40
13.0
 40
13.0
 40
14.0
 40
14.0
 40
14.0
 40
15.0
 40
15.0
 40
15.0
 40
16.0
 40
16.0
 40
16.0
 40
17.0
 40
17.0
 40
17.0
 40
18.0
 40
18.0
 40
18.0
 40
19.0
 40
19.0
 40
19.0
 40
20.0
 40
20.0
 40
20.0
 40
21.0
 40
21.0
 40
21.0
 40
22.0
 40
22.0
 40
22.0
 40
22.0
 10
6.168972439236111
 20
-1.893459743923611
 30
0.0
 10
6.168972439236111
 20
-1.893459743923611
 30
0.0
 10
6.024956597222222
 20
-1.893459743923611
 30
0.0
 10
6.024956597222222
 20
-1.893459743923611
 30
0.0
 10
6.024956597222222
 20
-1.893459743923611
 30
0.0
 10
6.096964518229166
 20
-2.233479817708333
 30
0.0
 10
6.096964518229166
 20
-2.233479817708333
 30
0.0
 10
6.098958333333333
 20
-2.244493272569444
 30
0.0
 10
6.100965711805555
 20
-2.2554931640625
 30
0.0
 10
6.100965711805555
 20
-2.264485677083333
 30
0.0
 10
6.100965711805555
 20
-2.286485460069444
 30
0.0
 10
6.090955946180555
 20
-2.302490234375
 30
0.0
 10
6.050957573784722
 20
-2.302490234375
 30
0.0
 10
6.029947916666666
 20
-2.302490234375
 30
0.0
 10
6.004964192708333
 20
-2.287489149305555
 30
0.0
 10
5.98095703125
 20
-2.267483181423611
 30
0.0
 10
5.98095703125
 20
-2.257486979166667
 30
0.0
 10
5.978949652777778
 20
-2.2454833984375
 30
0.0
 10
5.9759521484375
 20
-2.233479817708333
 30
0.0
 10
5.9759521484375
 20
-2.233479817708333
 30
0.0
 10
5.903944227430555
 20
-1.893459743923611
 30
0.0
 10
5.903944227430555
 20
-1.893459743923611
 30
0.0
 10
5.903944227430555
 20
-1.893459743923611
 30
0.0
 10
5.759928385416666
 20
-1.893459743923611
 30
0.0
 10
5.759928385416666
 20
-1.893459743923611
 30
0.0
 10
5.759928385416666
 20
-1.893459743923611
 30
0.0
 10
5.831936306423611
 20
-2.233479817708333
 30
0.0
 10
5.831936306423611
 20
-2.233479817708333
 30
0.0
 10
5.834933810763888
 20
-2.247490776909722
 30
0.0
 10
5.836941189236111
 20
-2.259494357638889
 30
0.0
 10
5.836941189236111
 20
-2.270494249131944
 30
0.0
 10
5.836941189236111
 20
-2.289496527777778
 30
0.0
 10
5.827935112847222
 20
-2.302490234375
 30
0.0
 10
5.798936631944444
 20
-2.302490234375
 30
0.0
 10
5.700927734375
 20
-2.302490234375
 30
0.0
 10
5.633924696180555
 20
-2.083468967013889
 30
0.0
 10
5.633924696180555
 20
-1.974460177951389
 30
0.0
 10
5.639919704861111
 20
-1.976467556423611
 30
0.0
 10
5.64892578125
 20
-1.978461371527778
 30
0.0
 10
5.654920789930555
 20
-1.978461371527778
 30
0.0
 10
5.683919270833333
 20
-1.978461371527778
 30
0.0
 10
5.696926540798611
 20
-1.950466579861111
 30
0.0
 10
5.696926540798611
 20
-1.922458224826389
 30
0.0
 10
5.696926540798611
 20
-1.901462131076389
 30
0.0
 10
5.672932942708333
 20
-1.873453776041667
 30
0.0
 10
5.639919704861111
 20
-1.873453776041667
 30
0.0
 10
5.596923828125
 20
-1.873453776041667
 30
0.0
 10
5.575914171006944
 20
-1.911458333333333
 30
0.0
 10
5.575914171006944
 20
-1.963460286458333
 30
0.0
 10
5.575914171006944
 20
-2.119479709201389
 30
0.0
 10
5.654920789930555
 20
-2.393500434027778
 30
0.0
 10
5.85693359375
 20
-2.393500434027778
 30
0.0
 10
5.924940321180555
 20
-2.393500434027778
 30
0.0
 10
5.968953450520833
 20
-2.367499457465278
 30
0.0
 10
5.978949652777778
 20
-2.310492621527778
 30
0.0
 10
6.025960286458333
 20
-2.353502061631944
 30
0.0
 10
6.079969618055555
 20
-2.393500434027778
 30
0.0
 10
6.121961805555555
 20
-2.393500434027778
 30
0.0
 10
6.198974609375
 20
-2.393500434027778
 30
0.0
 10
6.246975368923611
 20
-2.3594970703125
 30
0.0
 10
6.246975368923611
 20
-2.284491644965278
 30
0.0
 10
6.246975368923611
 20
-2.269490559895833
 30
0.0
 10
6.244981553819444
 20
-2.252482096354167
 30
0.0
 10
6.240966796875
 20
-2.233479817708333
 30
0.0
 10
6.240966796875
 20
-2.233479817708333
 30
0.0
 10
6.168972439236111
 20
-1.893459743923611
 30
0.0
 10
6.168972439236111
 20
-1.893459743923611
 30
0.0
  0
SPLINE
  5
5B
330
42
100
AcDbEntity
  8
Layer 3
 62
   179
420
  2301728
370
    35
100
AcDbSpline
210
0.0
220
0.0
230
1.0
 70
    11
 71
     3
 72
    17
 73
    13
 74
     0
 42
0.0000000001
 43
0.0000000001
 12
1.0
 22
0.0
 32
0.0
 13
1.0
 23
0.0
 33
0.0
 40
0.0
 40
0.0
 40
0.0
 40
0.0
 40
1.0
 40
1.0
 40
1.0
 40
2.0
 40
2.0
 40
2.0
 40
3.0
 40
3.0
 40
3.0
 40
4.0
 40
4.0
 40
4.0
 40
4.0
 10
5.390977647569444
 20
-1.681437174479167
 30
0.0
 10
5.346978081597222
 20
-1.681437174479167
 30
0.0
 10
5.310967339409722
 20
-1.717447916666667
 30
0.0
 10
5.310967339409722
 20
-1.761447482638889
 30
0.0
 10
5.310967339409722
 20
-1.805447048611111
 30
0.0
 10
5.346978081597222
 20
-1.8404541015625
 30
0.0
 10
5.390977647569444
 20
-1.8404541015625
 30
0.0
 10
5.434977213541666
 20
-1.8404541015625
 30
0.0
 10
5.469984266493055
 20
-1.805447048611111
 30
0.0
 10
5.469984266493055
 20
-1.761447482638889
 30
0.0
 10
5.469984266493055
 20
-1.717447916666667
 30
0.0
 10
5.434977213541666
 20
-1.681437174479167
 30
0.0
 10
5.390977647569444
 20
-1.681437174479167
 30
0.0
  0
SPLINE
  5
5C
330
42
100
AcDbEntity
  8
Layer 3
 62
   179
420
  2301728
370
    35
100
AcDbSpline
210
0.0
220
0.0
230
1.0
 70
    11
 71
     3
 72
    86
 73
    82
 74
     0
 42
0.0000000001
 43
0.0000000001
 12
1.0
 22
0.0
 32
0.0
 13
1.0
 23
0.0
 33
0.0
 40
0.0
 40
0.0
 40
0.0
 40
0.0
 40
1.0
 40
1.0
 40
1.0
 40
2.0
 40
2.0
 40
2.0
 40
3.0
 40
3.0
 40
3.0
 40
4.0
 40
4.0
 40
4.0
 40
5.0
 40
5.0
 40
5.0
 40
6.0
 40
6.0
 40
6.0
 40
7.0
 40
7.0
 40
7.0
 40
8.0
 40
8.0
 40
8.0
 40
9.0
 40
9.0
 40
9.0
 40
10.0
 40
10.0
 40
10.0
 40
11.0
 40
11.0
 40
11.0
 40
12.0
 40
12.0
 40
12.0
 40
13.0
 40
13.0
 40
13.0
 40
14.0
 40
14.0
 40
14.0
 40
15.0
 40
15.0
 40
15.0
 40
16.0
 40
16.0
 40
16.0
 40
17.0
 40
17.0
 40
17.0
 40
18.0
 40
18.0
 40
18.0
 40
19.0
 40
19.0
 40
19.0
 40
20.0
 40
20.0
 40
20.0
 40
21.0
 40
21.0
 40
21.0
 40
22.0
 40
22.0
 40
22.0
 40
23.0
 40
23.0
 40
23.0
 40
24.0
 40
24.0
 40
24.0
 40
25.0
 40
25.0
 40
25.0
 40
26.0
 40
26.0
 40
26.0
 40
27.0
 40
27.0
 40
27.0
 40
27.0
 10
5.488986545138888
 20
-1.893459743923611
 30
0.0
 10
5.488986545138888
 20
-1.893459743923611
 30
0.0
 10
5.344970703125
 20
-1.893459743923611
 30
0.0
 10
5.344970703125
 20
-1.893459743923611
 30
0.0
 10
5.344970703125
 20
-1.893459743923611
 30
0.0
 10
5.416978624131944
 20
-2.233479817708333
 30
0.0
 10
5.416978624131944
 20
-2.233479817708333
 30
0.0
 10
5.418986002604166
 20
-2.244493272569444
 30
0.0
 10
5.420979817708333
 20
-2.2554931640625
 30
0.0
 10
5.420979817708333
 20
-2.264485677083333
 30
0.0
 10
5.420979817708333
 20
-2.286485460069444
 30
0.0
 10
5.410983615451388
 20
-2.302490234375
 30
0.0
 10
5.3709716796875
 20
-2.302490234375
 30
0.0
 10
5.34598626030816
 20
-2.302490234375
 30
0.0
 10
5.316317240397135
 20
-2.280637105305989
 30
0.0
 10
5.287812974717881
 20
-2.256434970431858
 30
0.0
 10
5.286836412217881
 20
-2.249080234103733
 30
0.0
 10
5.285690307617188
 20
-2.241555955674913
 30
0.0
 10
5.283989800347222
 20
-2.233479817708333
 30
0.0
 10
5.283989800347222
 20
-2.233479817708333
 30
0.0
 10
5.1729736328125
 20
-1.713446723090278
 30
0.0
 10
5.1729736328125
 20
-1.713446723090278
 30
0.0
 10
5.1729736328125
 20
-1.713446723090278
 30
0.0
 10
5.024970160590278
 20
-1.693440755208333
 30
0.0
 10
5.024970160590278
 20
-1.693440755208333
 30
0.0
 10
5.024970160590278
 20
-1.693440755208333
 30
0.0
 10
5.139973958333333
 20
-2.233479817708333
 30
0.0
 10
5.139973958333333
 20
-2.233479817708333
 30
0.0
 10
5.142971462673611
 20
-2.248494466145833
 30
0.0
 10
5.144978841145833
 20
-2.257486979166667
 30
0.0
 10
5.144978841145833
 20
-2.265489366319444
 30
0.0
 10
5.144978841145833
 20
-2.287489149305555
 30
0.0
 10
5.133978949652778
 20
-2.302490234375
 30
0.0
 10
5.094970703125
 20
-2.302490234375
 30
0.0
 10
5.074734157986111
 20
-2.302490234375
 30
0.0
 10
5.051425509982638
 20
-2.288141038682725
 30
0.0
 10
5.028150770399305
 20
-2.269832187228733
 30
0.0
 10
5.027347140842013
 20
-2.257921854654948
 30
0.0
 10
5.025867886013454
 20
-2.245772467719184
 30
0.0
 10
5.022976345486111
 20
-2.233479817708333
 30
0.0
 10
5.022976345486111
 20
-2.233479817708333
 30
0.0
 10
4.9129638671875
 20
-1.713446723090278
 30
0.0
 10
4.9129638671875
 20
-1.713446723090278
 30
0.0
 10
4.9129638671875
 20
-1.713446723090278
 30
0.0
 10
4.764960394965278
 20
-1.693440755208333
 30
0.0
 10
4.764960394965278
 20
-1.693440755208333
 30
0.0
 10
4.764960394965278
 20
-1.693440755208333
 30
0.0
 10
4.879964192708333
 20
-2.233479817708333
 30
0.0
 10
4.879964192708333
 20
-2.233479817708333
 30
0.0
 10
4.882961697048611
 20
-2.2454833984375
 30
0.0
 10
4.884969075520833
 20
-2.256483289930555
 30
0.0
 10
4.884969075520833
 20
-2.267483181423611
 30
0.0
 10
4.884969075520833
 20
-2.288492838541667
 30
0.0
 10
4.876966688368055
 20
-2.304497612847222
 30
0.0
 10
4.848958333333333
 20
-2.304497612847222
 30
0.0
 10
4.841959635416666
 20
-2.304497612847222
 30
0.0
 10
4.830959743923611
 20
-2.304497612847222
 30
0.0
 10
4.822957356770833
 20
-2.301486545138889
 30
0.0
 10
4.850965711805555
 20
-2.387505425347222
 30
0.0
 10
4.892971462673611
 20
-2.393500434027778
 30
0.0
 10
4.926974826388888
 20
-2.393500434027778
 30
0.0
 10
4.986373053656684
 20
-2.393500434027778
 30
0.0
 10
5.017690022786458
 20
-2.360543992784288
 30
0.0
 10
5.026370578342013
 20
-2.312906901041667
 30
0.0
 10
5.072527567545572
 20
-2.355367024739583
 30
0.0
 10
5.124235365125868
 20
-2.393500434027778
 30
0.0
 10
5.165974934895833
 20
-2.393500434027778
 30
0.0
 10
5.237252129448785
 20
-2.393500434027778
 30
0.0
 10
5.282736036512587
 20
-2.364300198025174
 30
0.0
 10
5.289126925998263
 20
-2.300496419270833
 30
0.0
 10
5.338406880696614
 20
-2.347657945421007
 30
0.0
 10
5.396187676323785
 20
-2.393500434027778
 30
0.0
 10
5.441975911458333
 20
-2.393500434027778
 30
0.0
 10
5.518988715277778
 20
-2.393500434027778
 30
0.0
 10
5.567003038194444
 20
-2.3594970703125
 30
0.0
 10
5.567003038194444
 20
-2.284491644965278
 30
0.0
 10
5.567003038194444
 20
-2.269490559895833
 30
0.0
 10
5.564995659722222
 20
-2.252482096354167
 30
0.0
 10
5.560994466145833
 20
-2.233479817708333
 30
0.0
 10
5.560994466145833
 20
-2.233479817708333
 30
0.0
 10
5.488986545138888
 20
-1.893459743923611
 30
0.0
 10
5.488986545138888
 20
-1.893459743923611
 30
0.0
  0
SPLINE
  5
5D
330
42
100
AcDbEntity
  8
Layer 3
 62
   179
420
  2301728
370
    35
100
AcDbSpline
210
0.0
220
0.0
230
1.0
 70
    11
 71
     3
 72
    29
 73
    25
 74
     0
 42
0.0000000001
 43
0.0000000001
 12
1.0
 22
0.0
 32
0.0
 13
1.0
 23
0.0
 33
0.0
 40
0.0
 40
0.0
 40
0.0
 40
0.0
 40
1.0
 40
1.0
 40
1.0
 40
2.0
 40
2.0
 40
2.0
 40
3.0
 40
3.0
 40
3.0
 40
4.0
 40
4.0
 40
4.0
 40
5.0
 40
5.0
 40
5.0
 40
6.0
 40
6.0
 40
6.0
 40
7.0
 40
7.0
 40
7.0
 40
8.0
 40
8.0
 40
8.0
 40
8.0
 10
4.431993272569445
 20
-1.713446723090278
 30
0.0
 10
4.431993272569445
 20
-1.713446723090278
 30
0.0
 10
4.283989800347222
 20
-1.693440755208333
 30
0.0
 10
4.283989800347222
 20
-1.693440755208333
 30
0.0
 10
4.283989800347222
 20
-1.693440755208333
 30
0.0
 10
4.331990559895833
 20
-1.920464409722222
 30
0.0
 10
4.331990559895833
 20
-1.920464409722222
 30
0.0
 10
4.308987087673611
 20
-1.903455946180555
 30
0.0
 10
4.278984917534722
 20
-1.891452365451389
 30
0.0
 10
4.245985243055555
 20
-1.891452365451389
 30
0.0
 10
4.149970160590278
 20
-1.891452365451389
 30
0.0
 10
4.118964301215278
 20
-1.959459092881944
 30
0.0
 10
4.118964301215278
 20
-2.018473307291667
 30
0.0
 10
4.118964301215278
 20
-2.175482855902778
 30
0.0
 10
4.204983181423611
 20
-2.396497938368055
 30
0.0
 10
4.383992513020833
 20
-2.396497938368055
 30
0.0
 10
4.483005099826388
 20
-2.396497938368055
 30
0.0
 10
4.549004448784722
 20
-2.368503146701389
 30
0.0
 10
4.549004448784722
 20
-2.282484266493055
 30
0.0
 10
4.549004448784722
 20
-2.268486870659722
 30
0.0
 10
4.547010633680555
 20
-2.251491970486111
 30
0.0
 10
4.543009440104166
 20
-2.233479817708333
 30
0.0
 10
4.543009440104166
 20
-2.233479817708333
 30
0.0
 10
4.431993272569445
 20
-1.713446723090278
 30
0.0
 10
4.431993272569445
 20
-1.713446723090278
 30
0.0
  0
SPLINE
  5
5E
330
42
100
AcDbEntity
  8
Layer 3
 62
   179
420
  2301728
370
    35
100
AcDbSpline
210
0.0
220
0.0
230
1.0
 70
    11
 71
     3
 72
    23
 73
    19
 74
     0
 42
0.0000000001
 43
0.0000000001
 12
1.0
 22
0.0
 32
0.0
 13
1.0
 23
0.0
 33
0.0
 40
0.0
 40
0.0
 40
0.0
 40
0.0
 40
1.0
 40
1.0
 40
1.0
 40
2.0
 40
2.0
 40
2.0
 40
3.0
 40
3.0
 40
3.0
 40
4.0
 40
4.0
 40
4.0
 40
5.0
 40
5.0
 40
5.0
 40
6.0
 40
6.0
 40
6.0
 40
6.0
 10
4.362996419270833
 20
-2.325493706597222
 30
0.0
 10
4.280978732638888
 20
-2.325493706597222
 30
0.0
 10
4.230984157986111
 20
-2.097479926215278
 30
0.0
 10
4.230984157986111
 20
-2.025472005208333
 30
0.0
 10
4.230984157986111
 20
-1.965467664930555
 30
0.0
 10
4.262980143229166
 20
-1.951456705729167
 30
0.0
 10
4.287990993923611
 20
-1.951456705729167
 30
0.0
 10
4.297987196180555
 20
-1.951456705729167
 30
0.0
 10
4.332994249131945
 20
-1.958468967013889
 30
0.0
 10
4.341986762152778
 20
-1.965467664930555
 30
0.0
 10
4.341986762152778
 20
-1.965467664930555
 30
0.0
 10
4.398993598090278
 20
-2.233479817708333
 30
0.0
 10
4.398993598090278
 20
-2.233479817708333
 30
0.0
 10
4.403998480902778
 20
-2.257486979166667
 30
0.0
 10
4.406995985243055
 20
-2.275485568576389
 30
0.0
 10
4.406995985243055
 20
-2.288492838541667
 30
0.0
 10
4.406995985243055
 20
-2.318495008680555
 30
0.0
 10
4.392998589409722
 20
-2.325493706597222
 30
0.0
 10
4.362996419270833
 20
-2.325493706597222
 30
0.0
  0
SPLINE
  5
5F
330
42
100
AcDbEntity
  8
Layer 3
 62
   179
420
  2301728
370
    35
100
AcDbSpline
210
0.0
220
0.0
230
1.0
 70
    11
 71
     3
 72
    29
 73
    25
 74
     0
 42
0.0000000001
 43
0.0000000001
 12
1.0
 22
0.0
 32
0.0
 13
1.0
 23
0.0
 33
0.0
 40
0.0
 40
0.0
 40
0.0
 40
0.0
 40
1.0
 40
1.0
 40
1.0
 40
2.0
 40
2.0
 40
2.0
 40
3.0
 40
3.0
 40
3.0
 40
4.0
 40
4.0
 40
4.0
 40
5.0
 40
5.0
 40
5.0
 40
6.0
 40
6.0
 40
6.0
 40
7.0
 40
7.0
 40
7.0
 40
8.0
 40
8.0
 40
8.0
 40
8.0
 10
3.871012369791667
 20
-1.884453667534722
 30
0.0
 10
3.789008246527778
 20
-1.884453667534722
 30
0.0
 10
3.743001302083333
 20
-1.91845703125
 30
0.0
 10
3.743001302083333
 20
-1.988471137152778
 30
0.0
 10
3.743001302083333
 20
-2.1104736328125
 30
0.0
 10
3.874009874131944
 20
-2.180487738715278
 30
0.0
 10
3.969021267361111
 20
-2.192477756076389
 30
0.0
 10
3.971015082465278
 20
-2.208482530381944
 30
0.0
 10
3.972018771701389
 20
-2.223483615451389
 30
0.0
 10
3.972018771701389
 20
-2.235487196180555
 30
0.0
 10
3.972018771701389
 20
-2.301486545138889
 30
0.0
 10
3.939019097222222
 20
-2.321492513020833
 30
0.0
 10
3.900010850694444
 20
-2.321492513020833
 30
0.0
 10
3.853013780381944
 20
-2.321492513020833
 30
0.0
 10
3.813001844618055
 20
-2.294487847222222
 30
0.0
 10
3.771999782986111
 20
-2.257486979166667
 30
0.0
 10
3.771999782986111
 20
-2.365492078993055
 30
0.0
 10
3.8590087890625
 20
-2.393500434027778
 30
0.0
 10
3.959011501736111
 20
-2.393500434027778
 30
0.0
 10
4.055026584201388
 20
-2.393500434027778
 30
0.0
 10
4.107028537326388
 20
-2.320488823784722
 30
0.0
 10
4.107028537326388
 20
-2.234483506944444
 30
0.0
 10
4.107028537326388
 20
-2.107476128472222
 30
0.0
 10
4.053019205729166
 20
-1.884453667534722
 30
0.0
 10
3.871012369791667
 20
-1.884453667534722
 30
0.0
  0
SPLINE
  5
60
330
42
100
AcDbEntity
  8
Layer 3
 62
   179
420
  2301728
370
    35
100
AcDbSpline
210
0.0
220
0.0
230
1.0
 70
    11
 71
     3
 72
    14
 73
    10
 74
     0
 42
0.0000000001
 43
0.0000000001
 12
1.0
 22
0.0
 32
0.0
 13
1.0
 23
0.0
 33
0.0
 40
0.0
 40
0.0
 40
0.0
 40
0.0
 40
1.0
 40
1.0
 40
1.0
 40
2.0
 40
2.0
 40
2.0
 40
3.0
 40
3.0
 40
3.0
 40
3.0
 10
3.803005642361111
 20
-1.993462456597222
 30
0.0
 10
3.803005642361111
 20
-1.972466362847222
 30
0.0
 10
3.808010525173611
 20
-1.937459309895833
 30
0.0
 10
3.8380126953125
 20
-1.937459309895833
 30
0.0
 10
3.894015842013889
 20
-1.937459309895833
 30
0.0
 10
3.940009223090278
 20
-2.050469292534722
 30
0.0
 10
3.961018880208333
 20
-2.144476996527778
 30
0.0
 10
3.869004991319444
 20
-2.143473307291667
 30
0.0
 10
3.804009331597222
 20
-2.064466688368055
 30
0.0
 10
3.803005642361111
 20
-1.993462456597222
 30
0.0
  0
SPLINE
  5
61
330
42
100
AcDbEntity
  8
Layer 3
 62
   179
420
  2301728
370
    35
100
AcDbSpline
210
0.0
220
0.0
230
1.0
 70
    11
 71
     3
 72
    53
 73
    49
 74
     0
 42
0.0000000001
 43
0.0000000001
 12
1.0
 22
0.0
 32
0.0
 13
1.0
 23
0.0
 33
0.0
 40
0.0
 40
0.0
 40
0.0
 40
0.0
 40
1.0
 40
1.0
 40
1.0
 40
2.0
 40
2.0
 40
2.0
 40
3.0
 40
3.0
 40
3.0
 40
4.0
 40
4.0
 40
4.0
 40
5.0
 40
5.0
 40
5.0
 40
6.0
 40
6.0
 40
6.0
 40
7.0
 40
7.0
 40
7.0
 40
8.0
 40
8.0
 40
8.0
 40
9.0
 40
9.0
 40
9.0
 40
10.0
 40
10.0
 40
10.0
 40
11.0
 40
11.0
 40
11.0
 40
12.0
 40
12.0
 40
12.0
 40
13.0
 40
13.0
 40
13.0
 40
14.0
 40
14.0
 40
14.0
 40
15.0
 40
15.0
 40
15.0
 40
16.0
 40
16.0
 40
16.0
 40
16.0
 10
3.538045247395833
 20
-2.385498046875
 30
0.0
 10
3.538045247395833
 20
-2.385498046875
 30
0.0
 10
3.417032877604167
 20
-1.814453125
 30
0.0
 10
3.417032877604167
 20
-1.814453125
 30
0.0
 10
3.387030707465278
 20
-1.671440972222222
 30
0.0
 10
3.301025390625
 20
-1.644436306423611
 30
0.0
 10
3.235026041666667
 20
-1.644436306423611
 30
0.0
 10
3.174018012152778
 20
-1.644436306423611
 30
0.0
 10
3.117011176215278
 20
-1.687445746527778
 30
0.0
 10
3.117011176215278
 20
-1.752454969618055
 30
0.0
 10
3.117011176215278
 20
-1.768446180555555
 30
0.0
 10
3.118014865451389
 20
-1.781453450520833
 30
0.0
 10
3.120008680555555
 20
-1.793443467881944
 30
0.0
 10
3.120008680555555
 20
-1.793443467881944
 30
0.0
 10
3.167019314236111
 20
-1.793443467881944
 30
0.0
 10
3.167019314236111
 20
-1.793443467881944
 30
0.0
 10
3.166015625
 20
-1.783447265625
 30
0.0
 10
3.165011935763889
 20
-1.775444878472222
 30
0.0
 10
3.165011935763889
 20
-1.766452365451389
 30
0.0
 10
3.165011935763889
 20
-1.743448893229167
 30
0.0
 10
3.183010525173611
 20
-1.732449001736111
 30
0.0
 10
3.203016493055555
 20
-1.732449001736111
 30
0.0
 10
3.225016276041667
 20
-1.732449001736111
 30
0.0
 10
3.259019639756944
 20
-1.747450086805555
 30
0.0
 10
3.273017035590278
 20
-1.814453125
 30
0.0
 10
3.273017035590278
 20
-1.814453125
 30
0.0
 10
3.290025499131944
 20
-1.893459743923611
 30
0.0
 10
3.290025499131944
 20
-1.893459743923611
 30
0.0
 10
3.290025499131944
 20
-1.893459743923611
 30
0.0
 10
3.217013888888889
 20
-1.893459743923611
 30
0.0
 10
3.217013888888889
 20
-1.893459743923611
 30
0.0
 10
3.217013888888889
 20
-1.893459743923611
 30
0.0
 10
3.224012586805555
 20
-1.933458116319444
 30
0.0
 10
3.224012586805555
 20
-1.933458116319444
 30
0.0
 10
3.224012586805555
 20
-1.933458116319444
 30
0.0
 10
3.298027886284722
 20
-1.933458116319444
 30
0.0
 10
3.298027886284722
 20
-1.933458116319444
 30
0.0
 10
3.298027886284722
 20
-1.933458116319444
 30
0.0
 10
3.413031684027778
 20
-2.4735107421875
 30
0.0
 10
3.413031684027778
 20
-2.4735107421875
 30
0.0
 10
3.444037543402778
 20
-2.616522894965278
 30
0.0
 10
3.527045355902778
 20
-2.643527560763889
 30
0.0
 10
3.592054578993055
 20
-2.643527560763889
 30
0.0
 10
3.653049045138889
 20
-2.643527560763889
 30
0.0
 10
3.710055881076389
 20
-2.600518120659722
 30
0.0
 10
3.710055881076389
 20
-2.535508897569444
 30
0.0
 10
3.710055881076389
 20
-2.443508572048611
 30
0.0
 10
3.633056640625
 20
-2.414496527777778
 30
0.0
 10
3.538045247395833
 20
-2.385498046875
 30
0.0
  0
SPLINE
  5
62
330
42
100
AcDbEntity
  8
Layer 3
 62
   179
420
  2301728
370
    35
100
AcDbSpline
210
0.0
220
0.0
230
1.0
 70
    11
 71
     3
 72
    17
 73
    13
 74
     0
 42
0.0000000001
 43
0.0000000001
 12
1.0
 22
0.0
 32
0.0
 13
1.0
 23
0.0
 33
0.0
 40
0.0
 40
0.0
 40
0.0
 40
0.0
 40
1.0
 40
1.0
 40
1.0
 40
2.0
 40
2.0
 40
2.0
 40
3.0
 40
3.0
 40
3.0
 40
4.0
 40
4.0
 40
4.0
 40
4.0
 10
3.615058051215278
 20
-2.554511176215278
 30
0.0
 10
3.594048394097222
 20
-2.554511176215278
 30
0.0
 10
3.571044921875
 20
-2.535508897569444
 30
0.0
 10
3.558051215277778
 20
-2.476508246527778
 30
0.0
 10
3.558051215277778
 20
-2.476508246527778
 30
0.0
 10
3.5450439453125
 20
-2.418497721354167
 30
0.0
 10
3.5450439453125
 20
-2.418497721354167
 30
0.0
 10
3.608045789930555
 20
-2.439507378472222
 30
0.0
 10
3.655056423611111
 20
-2.467502170138889
 30
0.0
 10
3.655056423611111
 20
-2.521511501736111
 30
0.0
 10
3.655056423611111
 20
-2.535508897569444
 30
0.0
 10
3.637057834201389
 20
-2.554511176215278
 30
0.0
 10
3.615058051215278
 20
-2.554511176215278
 30
0.0
  0
SPLINE
  5
63
330
42
100
AcDbEntity
  8
Layer 3
 62
   179
420
  2301728
370
    35
100
AcDbSpline
210
0.0
220
0.0
230
1.0
 70
    11
 71
     3
 72
    35
 73
    31
 74
     0
 42
0.0000000001
 43
0.0000000001
 12
1.0
 22
0.0
 32
0.0
 13
1.0
 23
0.0
 33
0.0
 40
0.0
 40
0.0
 40
0.0
 40
0.0
 40
1.0
 40
1.0
 40
1.0
 40
2.0
 40
2.0
 40
2.0
 40
3.0
 40
3.0
 40
3.0
 40
4.0
 40
4.0
 40
4.0
 40
5.0
 40
5.0
 40
5.0
 40
6.0
 40
6.0
 40
6.0
 40
7.0
 40
7.0
 40
7.0
 40
8.0
 40
8.0
 40
8.0
 40
9.0
 40
9.0
 40
9.0
 40
10.0
 40
10.0
 40
10.0
 40
10.0
 10
3.019029405381944
 20
-1.893459743923611
 30
0.0
 10
3.019029405381944
 20
-1.893459743923611
 30
0.0
 10
3.030029296875
 20
-1.943467881944444
 30
0.0
 10
3.030029296875
 20
-1.943467881944444
 30
0.0
 10
2.994032118055555
 20
-1.915459526909722
 30
0.0
 10
2.954020182291667
 20
-1.893459743923611
 30
0.0
 10
2.912014431423611
 20
-1.893459743923611
 30
0.0
 10
2.867011176215278
 20
-1.893459743923611
 30
0.0
 10
2.840006510416667
 20
-1.919460720486111
 30
0.0
 10
2.840006510416667
 20
-1.957465277777778
 30
0.0
 10
2.840006510416667
 20
-1.992472330729167
 30
0.0
 10
2.866021050347222
 20
-2.035468207465278
 30
0.0
 10
2.915025499131944
 20
-2.035468207465278
 30
0.0
 10
2.971028645833333
 20
-2.035468207465278
 30
0.0
 10
2.943020290798611
 20
-1.969468858506944
 30
0.0
 10
2.9730224609375
 20
-1.969468858506944
 30
0.0
 10
3.003024631076389
 20
-1.969468858506944
 30
0.0
 10
3.019029405381944
 20
-1.98046875
 30
0.0
 10
3.042032877604167
 20
-2.00146484375
 30
0.0
 10
3.042032877604167
 20
-2.00146484375
 30
0.0
 10
3.125040690104167
 20
-2.393500434027778
 30
0.0
 10
3.125040690104167
 20
-2.393500434027778
 30
0.0
 10
3.125040690104167
 20
-2.393500434027778
 30
0.0
 10
3.26904296875
 20
-2.393500434027778
 30
0.0
 10
3.26904296875
 20
-2.393500434027778
 30
0.0
 10
3.26904296875
 20
-2.393500434027778
 30
0.0
 10
3.163045247395833
 20
-1.893459743923611
 30
0.0
 10
3.163045247395833
 20
-1.893459743923611
 30
0.0
 10
3.163045247395833
 20
-1.893459743923611
 30
0.0
 10
3.019029405381944
 20
-1.893459743923611
 30
0.0
 10
3.019029405381944
 20
-1.893459743923611
 30
0.0
  0
SPLINE
  5
64
330
42
100
AcDbEntity
  8
Layer 3
 62
   179
420
  2301728
370
    35
100
AcDbSpline
210
0.0
220
0.0
230
1.0
 70
    11
 71
     3
 72
   257
 73
   253
 74
     0
 42
0.0000000001
 43
0.0000000001
 12
1.0
 22
0.0
 32
0.0
 13
1.0
 23
0.0
 33
0.0
 40
0.0
 40
0.0
 40
0.0
 40
0.0
 40
1.0
 40
1.0
 40
1.0
 40
2.0
 40
2.0
 40
2.0
 40
3.0
 40
3.0
 40
3.0
 40
4.0
 40
4.0
 40
4.0
 40
5.0
 40
5.0
 40
5.0
 40
6.0
 40
6.0
 40
6.0
 40
7.0
 40
7.0
 40
7.0
 40
8.0
 40
8.0
 40
8.0
 40
9.0
 40
9.0
 40
9.0
 40
10.0
 40
10.0
 40
10.0
 40
11.0
 40
11.0
 40
11.0
 40
12.0
 40
12.0
 40
12.0
 40
13.0
 40
13.0
 40
13.0
 40
14.0
 40
14.0
 40
14.0
 40
15.0
 40
15.0
 40
15.0
 40
16.0
 40
16.0
 40
16.0
 40
17.0
 40
17.0
 40
17.0
 40
18.0
 40
18.0
 40
18.0
 40
19.0
 40
19.0
 40
19.0
 40
20.0
 40
20.0
 40
20.0
 40
21.0
 40
21.0
 40
21.0
 40
22.0
 40
22.0
 40
22.0
 40
23.0
 40
23.0
 40
23.0
 40
24.0
 40
24.0
 40
24.0
 40
25.0
 40
25.0
 40
25.0
 40
26.0
 40
26.0
 40
26.0
 40
27.0
 40
27.0
 40
27.0
 40
28.0
 40
28.0
 40
28.0
 40
29.0
 40
29.0
 40
29.0
 40
30.0
 40
30.0
 40
30.0
 40
31.0
 40
31.0
 40
31.0
 40
32.0
 40
32.0
 40
32.0
 40
33.0
 40
33.0
 40
33.0
 40
34.0
 40
34.0
 40
34.0
 40
35.0
 40
35.0
 40
35.0
 40
36.0
 40
36.0
 40
36.0
 40
37.0
 40
37.0
 40
37.0
 40
38.0
 40
38.0
 40
38.0
 40
39.0
 40
39.0
 40
39.0
 40
40.0
 40
40.0
 40
40.0
 40
41.0
 40
41.0
 40
41.0
 40
42.0
 40
42.0
 40
42.0
 40
43.0
 40
43.0
 40
43.0
 40
44.0
 40
44.0
 40
44.0
 40
45.0
 40
45.0
 40
45.0
 40
46.0
 40
46.0
 40
46.0
 40
47.0
 40
47.0
 40
47.0
 40
48.0
 40
48.0
 40
48.0
 40
49.0
 40
49.0
 40
49.0
 40
50.0
 40
50.0
 40
50.0
 40
51.0
 40
51.0
 40
51.0
 40
52.0
 40
52.0
 40
52.0
 40
53.0
 40
53.0
 40
53.0
 40
54.0
 40
54.0
 40
54.0
 40
55.0
 40
55.0
 40
55.0
 40
56.0
 40
56.0
 40
56.0
 40
57.0
 40
57.0
 40
57.0
 40
58.0
 40
58.0
 40
58.0
 40
59.0
 40
59.0
 40
59.0
 40
60.0
 40
60.0
 40
60.0
 40
61.0
 40
61.0
 40
61.0
 40
62.0
 40
62.0
 40
62.0
 40
63.0
 40
63.0
 40
63.0
 40
64.0
 40
64.0
 40
64.0
 40
65.0
 40
65.0
 40
65.0
 40
66.0
 40
66.0
 40
66.0
 40
67.0
 40
67.0
 40
67.0
 40
68.0
 40
68.0
 40
68.0
 40
69.0
 40
69.0
 40
69.0
 40
70.0
 40
70.0
 40
70.0
 40
71.0
 40
71.0
 40
71.0
 40
72.0
 40
72.0
 40
72.0
 40
73.0
 40
73.0
 40
73.0
 40
74.0
 40
74.0
 40
74.0
 40
75.0
 40
75.0
 40
75.0
 40
76.0
 40
76.0
 40
76.0
 40
77.0
 40
77.0
 40
77.0
 40
78.0
 40
78.0
 40
78.0
 40
79.0
 40
79.0
 40
79.0
 40
80.0
 40
80.0
 40
80.0
 40
81.0
 40
81.0
 40
81.0
 40
82.0
 40
82.0
 40
82.0
 40
83.0
 40
83.0
 40
83.0
 40
84.0
 40
84.0
 40
84.0
 40
84.0
 10
2.780042860243055
 20
-1.893459743923611
 30
0.0
 10
2.780042860243055
 20
-1.893459743923611
 30
0.0
 10
2.636027018229167
 20
-1.893459743923611
 30
0.0
 10
2.636027018229167
 20
-1.893459743923611
 30
0.0
 10
2.636027018229167
 20
-1.893459743923611
 30
0.0
 10
2.708034939236111
 20
-2.233479817708333
 30
0.0
 10
2.708034939236111
 20
-2.233479817708333
 30
0.0
 10
2.710042317708333
 20
-2.244493272569444
 30
0.0
 10
2.7120361328125
 20
-2.2554931640625
 30
0.0
 10
2.7120361328125
 20
-2.264485677083333
 30
0.0
 10
2.7120361328125
 20
-2.286485460069444
 30
0.0
 10
2.702039930555555
 20
-2.302490234375
 30
0.0
 10
2.662027994791667
 20
-2.302490234375
 30
0.0
 10
2.641031901041667
 20
-2.302490234375
 30
0.0
 10
2.616034613715278
 20
-2.286485460069444
 30
0.0
 10
2.591023763020833
 20
-2.266493055555555
 30
0.0
 10
2.590020073784722
 20
-2.256483289930555
 30
0.0
 10
2.588026258680555
 20
-2.2454833984375
 30
0.0
 10
2.585028754340278
 20
-2.233479817708333
 30
0.0
 10
2.585028754340278
 20
-2.233479817708333
 30
0.0
 10
2.513020769849087
 20
-1.893459743923611
 30
0.0
 10
2.513020769849087
 20
-1.893459743923611
 30
0.0
 10
2.513020769849087
 20
-1.893459743923611
 30
0.0
 10
2.369004991319444
 20
-1.893459743923611
 30
0.0
 10
2.369004991319444
 20
-1.893459743923611
 30
0.0
 10
2.369004991319444
 20
-1.893459743923611
 30
0.0
 10
2.441012912326389
 20
-2.233479817708333
 30
0.0
 10
2.441012912326389
 20
-2.233479817708333
 30
0.0
 10
2.443020290798611
 20
-2.244493272569444
 30
0.0
 10
2.445014105902778
 20
-2.2554931640625
 30
0.0
 10
2.445014105902778
 20
-2.264485677083333
 30
0.0
 10
2.445014105902778
 20
-2.286485460069444
 30
0.0
 10
2.435017903645833
 20
-2.302490234375
 30
0.0
 10
2.395005967881944
 20
-2.302490234375
 30
0.0
 10
2.377495659722222
 20
-2.302490234375
 30
0.0
 10
2.357684665256089
 20
-2.291756523980034
 30
0.0
 10
2.337586296929253
 20
-2.277003818088108
 30
0.0
 10
2.3370607164171
 20
-2.263814290364583
 30
0.0
 10
2.335435655381944
 20
-2.249518500434028
 30
0.0
 10
2.332058376736111
 20
-2.233479817708333
 30
0.0
 10
2.332058376736111
 20
-2.233479817708333
 30
0.0
 10
2.260050455729167
 20
-1.893459743923611
 30
0.0
 10
2.260050455729167
 20
-1.893459743923611
 30
0.0
 10
2.260050455729167
 20
-1.893459743923611
 30
0.0
 10
2.116034613715278
 20
-1.893459743923611
 30
0.0
 10
2.116034613715278
 20
-1.893459743923611
 30
0.0
 10
2.116034613715278
 20
-1.893459743923611
 30
0.0
 10
2.188042534722222
 20
-2.233479817708333
 30
0.0
 10
2.188042534722222
 20
-2.233479817708333
 30
0.0
 10
2.190049913194444
 20
-2.244493272569444
 30
0.0
 10
2.192043728298611
 20
-2.2554931640625
 30
0.0
 10
2.192043728298611
 20
-2.264485677083333
 30
0.0
 10
2.192043728298611
 20
-2.286485460069444
 30
0.0
 10
2.182047526041667
 20
-2.302490234375
 30
0.0
 10
2.142035590277778
 20
-2.302490234375
 30
0.0
 10
2.11529710557727
 20
-2.302490234375
 30
0.0
 10
2.083204481336805
 20
-2.277455647786458
 30
0.0
 10
2.052905612521714
 20
-2.251304626464844
 30
0.0
 10
2.041403876410603
 20
-2.171338399251302
 30
0.0
 10
2.001547919379353
 20
-2.00671641031901
 30
0.0
 10
1.987060546875
 20
-1.933458116319444
 30
0.0
 10
1.987060546875
 20
-1.933458116319444
 30
0.0
 10
2.020060221354167
 20
-1.933458116319444
 30
0.0
 10
2.020060221354167
 20
-1.933458116319444
 30
0.0
 10
2.020060221354167
 20
-1.933458116319444
 30
0.0
 10
2.012057834201389
 20
-1.893459743923611
 30
0.0
 10
2.012057834201389
 20
-1.893459743923611
 30
0.0
 10
2.012057834201389
 20
-1.893459743923611
 30
0.0
 10
1.979058159722222
 20
-1.893459743923611
 30
0.0
 10
1.979058159722222
 20
-1.893459743923611
 30
0.0
 10
1.979058159722222
 20
-1.893459743923611
 30
0.0
 10
1.949055989583333
 20
-1.755452473958333
 30
0.0
 10
1.949055989583333
 20
-1.755452473958333
 30
0.0
 10
1.949055989583333
 20
-1.755452473958333
 30
0.0
 10
1.801038953993055
 20
-1.735446506076389
 30
0.0
 10
1.801038953993055
 20
-1.735446506076389
 30
0.0
 10
1.801038953993055
 20
-1.735446506076389
 30
0.0
 10
1.8160400390625
 20
-1.803453233506944
 30
0.0
 10
1.835042317708333
 20
-1.893459743923611
 30
0.0
 10
1.835042317708333
 20
-1.893459743923611
 30
0.0
 10
1.775037977430555
 20
-1.893459743923611
 30
0.0
 10
1.775037977430555
 20
-1.893459743923611
 30
0.0
 10
1.775037977430555
 20
-1.893459743923611
 30
0.0
 10
1.783040364583333
 20
-1.933458116319444
 30
0.0
 10
1.783040364583333
 20
-1.933458116319444
 30
0.0
 10
1.783040364583333
 20
-1.933458116319444
 30
0.0
 10
1.843044704861111
 20
-1.933458116319444
 30
0.0
 10
1.843044704861111
 20
-1.933458116319444
 30
0.0
 10
1.912055121527778
 20
-2.249484592013889
 30
0.0
 10
1.911051432291667
 20
-2.259494357638889
 30
0.0
 10
1.911051432291667
 20
-2.264485677083333
 30
0.0
 10
1.911051432291667
 20
-2.287489149305555
 30
0.0
 10
1.901055230034722
 20
-2.302490234375
 30
0.0
 10
1.861056857638889
 20
-2.302490234375
 30
0.0
 10
1.831391228569878
 20
-2.302490234375
 30
0.0
 10
1.795142279730903
 20
-2.271707322862413
 30
0.0
 10
1.762073092990464
 20
-2.242746141221788
 30
0.0
 10
1.762073092990464
 20
-2.242746141221788
 30
0.0
 10
1.672064887152778
 20
-1.814453125
 30
0.0
 10
1.672064887152778
 20
-1.814453125
 30
0.0
 10
1.642062717013889
 20
-1.671440972222222
 30
0.0
 10
1.556057400173611
 20
-1.644436306423611
 30
0.0
 10
1.490058051215278
 20
-1.644436306423611
 30
0.0
 10
1.429050021701389
 20
-1.644436306423611
 30
0.0
 10
1.372043185763889
 20
-1.687445746527778
 30
0.0
 10
1.372043185763889
 20
-1.752454969618055
 30
0.0
 10
1.372043185763889
 20
-1.768446180555555
 30
0.0
 10
1.373046875
 20
-1.781453450520833
 30
0.0
 10
1.375040690104167
 20
-1.793443467881944
 30
0.0
 10
1.375040690104167
 20
-1.793443467881944
 30
0.0
 10
1.422051323784722
 20
-1.793443467881944
 30
0.0
 10
1.422051323784722
 20
-1.793443467881944
 30
0.0
 10
1.421047634548611
 20
-1.783447265625
 30
0.0
 10
1.4200439453125
 20
-1.775444878472222
 30
0.0
 10
1.4200439453125
 20
-1.766452365451389
 30
0.0
 10
1.4200439453125
 20
-1.743448893229167
 30
0.0
 10
1.438042534722222
 20
-1.732449001736111
 30
0.0
 10
1.458048502604167
 20
-1.732449001736111
 30
0.0
 10
1.480048285590278
 20
-1.732449001736111
 30
0.0
 10
1.511054144965278
 20
-1.744452582465278
 30
0.0
 10
1.526055230034722
 20
-1.811455620659722
 30
0.0
 10
1.526055230034722
 20
-1.811455620659722
 30
0.0
 10
1.544053819444444
 20
-1.893459743923611
 30
0.0
 10
1.544053819444444
 20
-1.893459743923611
 30
0.0
 10
1.544053819444444
 20
-1.893459743923611
 30
0.0
 10
1.269029405381944
 20
-1.893459743923611
 30
0.0
 10
1.269029405381944
 20
-1.893459743923611
 30
0.0
 10
1.269029405381944
 20
-1.893459743923611
 30
0.0
 10
1.342041015625
 20
-2.233479817708333
 30
0.0
 10
1.342041015625
 20
-2.233479817708333
 30
0.0
 10
1.345038519965278
 20
-2.244493272569444
 30
0.0
 10
1.347032335069444
 20
-2.2554931640625
 30
0.0
 10
1.347032335069444
 20
-2.265489366319444
 30
0.0
 10
1.347032335069444
 20
-2.287489149305555
 30
0.0
 10
1.336032443576389
 20
-2.302490234375
 30
0.0
 10
1.297037760416667
 20
-2.302490234375
 30
0.0
 10
1.276028103298611
 20
-2.302490234375
 30
0.0
 10
1.250027126736111
 20
-2.286485460069444
 30
0.0
 10
1.225029839409722
 20
-2.266493055555555
 30
0.0
 10
1.225029839409722
 20
-2.256483289930555
 30
0.0
 10
1.2230224609375
 20
-2.2454833984375
 30
0.0
 10
1.220024956597222
 20
-2.233479817708333
 30
0.0
 10
1.220024956597222
 20
-2.233479817708333
 30
0.0
 10
1.148017035590278
 20
-1.893459743923611
 30
0.0
 10
1.148017035590278
 20
-1.893459743923611
 30
0.0
 10
1.148017035590278
 20
-1.893459743923611
 30
0.0
 10
1.003011067708333
 20
-1.893459743923611
 30
0.0
 10
1.003011067708333
 20
-1.893459743923611
 30
0.0
 10
1.003011067708333
 20
-1.893459743923611
 30
0.0
 10
1.076009114583333
 20
-2.233479817708333
 30
0.0
 10
1.076009114583333
 20
-2.233479817708333
 30
0.0
 10
1.079020182291667
 20
-2.244493272569444
 30
0.0
 10
1.081013997395833
 20
-2.2554931640625
 30
0.0
 10
1.081013997395833
 20
-2.265489366319444
 30
0.0
 10
1.081013997395833
 20
-2.287489149305555
 30
0.0
 10
1.070014105902778
 20
-2.302490234375
 30
0.0
 10
1.031005859375
 20
-2.302490234375
 30
0.0
 10
1.010487874348958
 20
-2.302490234375
 30
0.0
 10
0.9868113199869791
 20
-2.287725660536024
 30
0.0
 10
0.9632161458333333
 20
-2.269052293565538
 30
0.0
 10
0.962384541829427
 20
-2.257386949327257
 30
0.0
 10
0.9609180026584201
 20
-2.245503743489583
 30
0.0
 10
0.9580891927083333
 20
-2.233479817708333
 30
0.0
 10
0.9580891927083333
 20
-2.233479817708333
 30
0.0
 10
0.8480767144097222
 20
-1.713446723090278
 30
0.0
 10
0.8480767144097222
 20
-1.713446723090278
 30
0.0
 10
0.8480767144097222
 20
-1.713446723090278
 30
0.0
 10
0.7000732421875
 20
-1.693440755208333
 30
0.0
 10
0.7000732421875
 20
-1.693440755208333
 30
0.0
 10
0.7000732421875
 20
-1.693440755208333
 30
0.0
 10
0.8150770399305555
 20
-2.233479817708333
 30
0.0
 10
0.8150770399305555
 20
-2.233479817708333
 30
0.0
 10
0.8180745442708333
 20
-2.2454833984375
 30
0.0
 10
0.8200819227430555
 20
-2.256483289930555
 30
0.0
 10
0.8200819227430555
 20
-2.267483181423611
 30
0.0
 10
0.8200819227430555
 20
-2.288492838541667
 30
0.0
 10
0.8120795355902777
 20
-2.304497612847222
 30
0.0
 10
0.7840711805555555
 20
-2.304497612847222
 30
0.0
 10
0.7770724826388888
 20
-2.304497612847222
 30
0.0
 10
0.7660725911458333
 20
-2.304497612847222
 30
0.0
 10
0.7580702039930555
 20
-2.301486545138889
 30
0.0
 10
0.7860785590277777
 20
-2.387505425347222
 30
0.0
 10
0.8280843098958333
 20
-2.393500434027778
 30
0.0
 10
0.862087673611111
 20
-2.393500434027778
 30
0.0
 10
0.9217885335286458
 20
-2.393500434027778
 30
0.0
 10
0.9531182183159722
 20
-2.360205756293403
 30
0.0
 10
0.9616097344292535
 20
-2.31217532687717
 30
0.0
 10
1.007967631022135
 20
-2.354929606119792
 30
0.0
 10
1.06003655327691
 20
-2.393500434027778
 30
0.0
 10
1.102023654513889
 20
-2.393500434027778
 30
0.0
 10
1.1710205078125
 20
-2.393500434027778
 30
0.0
 10
1.215033637152778
 20
-2.367499457465278
 30
0.0
 10
1.225029839409722
 20
-2.309488932291667
 30
0.0
 10
1.272026909722222
 20
-2.353502061631944
 30
0.0
 10
1.325032552083333
 20
-2.393500434027778
 30
0.0
 10
1.3680419921875
 20
-2.393500434027778
 30
0.0
 10
1.446044921875
 20
-2.393500434027778
 30
0.0
 10
1.492051866319444
 20
-2.3594970703125
 30
0.0
 10
1.492051866319444
 20
-2.284491644965278
 30
0.0
 10
1.492051866319444
 20
-2.268486870659722
 30
0.0
 10
1.490058051215278
 20
-2.252482096354167
 30
0.0
 10
1.486056857638889
 20
-2.233479817708333
 30
0.0
 10
1.486056857638889
 20
-2.233479817708333
 30
0.0
 10
1.427042643229167
 20
-1.945461697048611
 30
0.0
 10
1.427042643229167
 20
-1.945461697048611
 30
0.0
 10
1.427042643229167
 20
-1.945461697048611
 30
0.0
 10
1.554063585069444
 20
-1.945461697048611
 30
0.0
 10
1.554063585069444
 20
-1.945461697048611
 30
0.0
 10
1.554063585069444
 20
-1.945461697048611
 30
0.0
 10
1.665066189236111
 20
-2.4735107421875
 30
0.0
 10
1.665066189236111
 20
-2.4735107421875
 30
0.0
 10
1.695068359375
 20
-2.616522894965278
 30
0.0
 10
1.781073676215278
 20
-2.643527560763889
 30
0.0
 10
1.847086588541667
 20
-2.643527560763889
 30
0.0
 10
1.9080810546875
 20
-2.643527560763889
 30
0.0
 10
1.965087890625
 20
-2.600518120659722
 30
0.0
 10
1.965087890625
 20
-2.535508897569444
 30
0.0
 10
1.965087890625
 20
-2.443508572048611
 30
0.0
 10
1.8870849609375
 20
-2.414496527777778
 30
0.0
 10
1.792073567708333
 20
-2.385498046875
 30
0.0
 10
1.792073567708333
 20
-2.385498046875
 30
0.0
 10
1.77294667561849
 20
-2.294484456380208
 30
0.0
 10
1.77294667561849
 20
-2.294484456380208
 30
0.0
 10
1.823521084255642
 20
-2.343683878580729
 30
0.0
 10
1.884318033854167
 20
-2.393500434027778
 30
0.0
 10
1.932061089409722
 20
-2.393500434027778
 30
0.0
 10
2.004951477050781
 20
-2.393500434027778
 30
0.0
 10
2.050900777180989
 20
-2.362969292534722
 30
0.0
 10
2.055603875054254
 20
-2.296089172363281
 30
0.0
 10
2.105848524305555
 20
-2.344761318630642
 30
0.0
 10
2.165824890136719
 20
-2.393500434027778
 30
0.0
 10
2.213039822048611
 20
-2.393500434027778
 30
0.0
 10
2.276747809516059
 20
-2.393500434027778
 30
0.0
 10
2.320507473415811
 20
-2.370147705078125
 30
0.0
 10
2.333758884006089
 20
-2.319646199544271
 30
0.0
 10
2.377989874945746
 20
-2.359325832790799
 30
0.0
 10
2.426484002007378
 20
-2.393500434027778
 30
0.0
 10
2.466010199652778
 20
-2.393500434027778
 30
0.0
 10
2.534016927083333
 20
-2.393500434027778
 30
0.0
 10
2.580023871527778
 20
-2.367499457465278
 30
0.0
 10
2.589029947916667
 20
-2.309488932291667
 30
0.0
 10
2.636027018229167
 20
-2.353502061631944
 30
0.0
 10
2.690036349826389
 20
-2.393500434027778
 30
0.0
 10
2.7330322265625
 20
-2.393500434027778
 30
0.0
 10
2.810045030381944
 20
-2.393500434027778
 30
0.0
 10
2.858045789930555
 20
-2.3594970703125
 30
0.0
 10
2.858045789930555
 20
-2.284491644965278
 30
0.0
 10
2.858045789930555
 20
-2.269490559895833
 30
0.0
 10
2.856051974826389
 20
-2.252482096354167
 30
0.0
 10
2.85205078125
 20
-2.233479817708333
 30
0.0
 10
2.85205078125
 20
-2.233479817708333
 30
0.0
 10
2.780042860243055
 20
-1.893459743923611
 30
0.0
 10
2.780042860243055
 20
-1.893459743923611
 30
0.0
  0
SPLINE
  5
65
330
42
100
AcDbEntity
  8
Layer 3
 62
   179
420
  2301728
370
    35
100
AcDbSpline
210
0.0
220
0.0
230
1.0
 70
    11
 71
     3
 72
    17
 73
    13
 74
     0
 42
0.0000000001
 43
0.0000000001
 12
1.0
 22
0.0
 32
0.0
 13
1.0
 23
0.0
 33
0.0
 40
0.0
 40
0.0
 40
0.0
 40
0.0
 40
1.0
 40
1.0
 40
1.0
 40
2.0
 40
2.0
 40
2.0
 40
3.0
 40
3.0
 40
3.0
 40
4.0
 40
4.0
 40
4.0
 40
4.0
 10
1.910088433159722
 20
-2.521511501736111
 30
0.0
 10
1.910088433159722
 20
-2.535508897569444
 30
0.0
 10
1.89208984375
 20
-2.554511176215278
 30
0.0
 10
1.870090060763889
 20
-2.554511176215278
 30
0.0
 10
1.850084092881944
 20
-2.554511176215278
 30
0.0
 10
1.823079427083333
 20
-2.535508897569444
 30
0.0
 10
1.811075846354167
 20
-2.476508246527778
 30
0.0
 10
1.811075846354167
 20
-2.476508246527778
 30
0.0
 10
1.799072265625
 20
-2.418497721354167
 30
0.0
 10
1.799072265625
 20
-2.418497721354167
 30
0.0
 10
1.862087673611111
 20
-2.439507378472222
 30
0.0
 10
1.910088433159722
 20
-2.467502170138889
 30
0.0
 10
1.910088433159722
 20
-2.521511501736111
 30
0.0
  0
SPLINE
  5
66
330
42
100
AcDbEntity
  8
Layer 3
 62
   179
420
  2301728
370
    35
100
AcDbSpline
210
0.0
220
0.0
230
1.0
 70
    11
 71
     3
 72
    17
 73
    13
 74
     0
 42
0.0000000001
 43
0.0000000001
 12
1.0
 22
0.0
 32
0.0
 13
1.0
 23
0.0
 33
0.0
 40
0.0
 40
0.0
 40
0.0
 40
0.0
 40
1.0
 40
1.0
 40
1.0
 40
2.0
 40
2.0
 40
2.0
 40
3.0
 40
3.0
 40
3.0
 40
4.0
 40
4.0
 40
4.0
 40
4.0
 10
2.08203125
 20
-1.761447482638889
 30
0.0
 10
2.08203125
 20
-1.805447048611111
 30
0.0
 10
2.1180419921875
 20
-1.8404541015625
 30
0.0
 10
2.162041558159722
 20
-1.8404541015625
 30
0.0
 10
2.206041124131944
 20
-1.8404541015625
 30
0.0
 10
2.241048177083333
 20
-1.805447048611111
 30
0.0
 10
2.241048177083333
 20
-1.761447482638889
 30
0.0
 10
2.241048177083333
 20
-1.717447916666667
 30
0.0
 10
2.206041124131944
 20
-1.681437174479167
 30
0.0
 10
2.162041558159722
 20
-1.681437174479167
 30
0.0
 10
2.1180419921875
 20
-1.681437174479167
 30
0.0
 10
2.08203125
 20
-1.717447916666667
 30
0.0
 10
2.08203125
 20
-1.761447482638889
 30
0.0
  0
ENDBLK
  5
45
330
42
100
AcDbEntity
  8
0
100
AcDbBlockEnd
  0
ENDSEC
  0
SECTION
  2
ENTITIES
  0
INSERT
  5
43
330
1F
100
AcDbEntity
  8
Layer 3
100
AcDbBlockReference
  2
block 2
 10
0.0
 20
0.0
 30
0.0
  0
ENDSEC
  0
SECTION
  2
OBJECTS
  0
DICTIONARY
  5
C
330
0
100
AcDbDictionary
281
     1
  3
ACAD_GROUP
350
D
  3
ACAD_LAYOUT
350
1A
  3
ACAD_MATERIAL
350
3B
  3
ACAD_MLEADERSTYLE
350
69
  3
ACAD_MLINESTYLE
350
17
  3
ACAD_PLOTSETTINGS
350
19
  3
ACAD_PLOTSTYLENAME
350
E
  3
ACAD_TABLESTYLE
350
68
  3
ACAD_VISUALSTYLE
350
2A
  0
SUN
  5
3F
330
29
100
AcDbSun
 90
        1
290
     0
 63
     7
421
 16777215
 40
1.0
291
     1
 91
  2455826
 92
 54000000
292
     0
 70
     2
 71
   256
280
     1
  0
DICTIONARY
  5
D
102
{ACAD_REACTORS
330
C
102
}
330
C
100
AcDbDictionary
281
     1
  0
DICTIONARY
  5
1A
102
{ACAD_REACTORS
330
C
102
}
330
C
100
AcDbDictionary
281
     1
  3
Layout1
350
1E
  3
Layout2
350
26
  3
Model
350
22
  0
DICTIONARY
  5
3B
102
{ACAD_REACTORS
330
C
102
}
330
C
100
AcDbDictionary
281
     1
  3
ByBlock
350
3D
  3
ByLayer
350
3C
  3
Global
350
3E
  0
DICTIONARY
  5
69
102
{ACAD_REACTORS
330
C
102
}
330
C
100
AcDbDictionary
281
     1
  0
DICTIONARY
  5
17
102
{ACAD_REACTORS
330
C
102
}
330
C
100
AcDbDictionary
281
     1
  3
Standard
350
18
  0
DICTIONARY
  5
19
102
{ACAD_REACTORS
330
C
102
}
330
C
100
AcDbDictionary
281
     1
  0
ACDBDICTIONARYWDFLT
  5
E
102
{ACAD_REACTORS
330
C
102
}
330
C
100
AcDbDictionary
281
     1
  3
Normal
350
F
100
AcDbDictionaryWithDefault
340
F
  0
DICTIONARY
  5
68
102
{ACAD_REACTORS
330
C
102
}
330
C
100
AcDbDictionary
281
     1
  0
DICTIONARY
  5
2A
102
{ACAD_REACTORS
330
C
102
}
330
C
100
AcDbDictionary
281
     1
  3
2dWireframe
350
2F
  3
3D Hidden
350
31
  3
3dWireframe
350
30
  3
Basic
350
32
  3
Brighten
350
36
  3
ColorChange
350
3A
  3
Conceptual
350
34
  3
Dim
350
35
  3
Facepattern
350
39
  3
Flat
350
2B
  3
FlatWithEdges
350
2C
  3
Gouraud
350
2D
  3
GouraudWithEdges
350
2E
  3
Linepattern
350
38
  3
Realistic
350
33
  3
Thicken
350
37
  0
LAYOUT
  5
1E
102
{ACAD_REACTORS
330
1A
102
}
330
1A
100
AcDbPlotSettings
  1

  2
none_device
  4

  6

 40
0.0
 41
0.0
 42
0.0
 43
0.0
 44
0.0
 45
0.0
 46
0.0
 47
0.0
 48
0.0
 49
0.0
140
0.0
141
0.0
142
1.0
143
1.0
 70
   688
 72
     0
 73
     0
 74
     5
  7

 75
    16
 76
     0
 77
     2
 78
   300
147
1.0
148
0.0
149
0.0
100
AcDbLayout
  1
Layout1
 70
     1
 71
     1
 10
0.0
 20
0.0
 11
12.0
 21
9.0
 12
0.0
 22
0.0
 32
0.0
 14
1.000000000000000E+20
 24
1.000000000000000E+20
 34
1.000000000000000E+20
 15
-1.000000000000000E+20
 25
-1.000000000000000E+20
 35
-1.000000000000000E+20
146
0.0
 13
0.0
 23
0.0
 33
0.0
 16
1.0
 26
0.0
 36
0.0
 17
0.0
 27
1.0
 37
0.0
 76
     0
330
1B
  0
LAYOUT
  5
26
102
{ACAD_REACTORS
330
1A
102
}
330
1A
100
AcDbPlotSettings
  1

  2
none_device
  4

  6

 40
0.0
 41
0.0
 42
0.0
 43
0.0
 44
0.0
 45
0.0
 46
0.0
 47
0.0
 48
0.0
 49
0.0
140
0.0
141
0.0
142
1.0
143
1.0
 70
   688
 72
     0
 73
     0
 74
     5
  7

 75
    16
 76
     0
 77
     2
 78
   300
147
1.0
148
0.0
149
0.0
100
AcDbLayout
  1
Layout2
 70
     1
 71
     2
 10
0.0
 20
0.0
 11
0.0
 21
0.0
 12
0.0
 22
0.0
 32
0.0
 14
0.0
 24
0.0
 34
0.0
 15
0.0
 25
0.0
 35
0.0
146
0.0
 13
0.0
 23
0.0
 33
0.0
 16
1.0
 26
0.0
 36
0.0
 17
0.0
 27
1.0
 37
0.0
 76
     0
330
23
  0
LAYOUT
  5
22
102
{ACAD_REACTORS
330
1A
102
}
330
1A
100
AcDbPlotSettings
  1

  2
none_device
  4

  6

 40
0.0
 41
0.0
 42
0.0
 43
0.0
 44
0.0
 45
0.0
 46
0.0
 47
0.0
 48
0.0
 49
0.0
140
0.0
141
0.0
142
1.0
143
1.0
 70
  1712
 72
     0
 73
     0
 74
     0
  7

 75
     0
 76
     0
 77
     2
 78
   300
147
1.0
148
0.0
149
0.0
100
AcDbLayout
  1
Model
 70
     1
 71
     0
 10
0.0
 20
0.0
 11
12.0
 21
9.0
 12
0.0
 22
0.0
 32
0.0
 14
1.000000000000000E+20
 24
1.000000000000000E+20
 34
1.000000000000000E+20
 15
-1.000000000000000E+20
 25
-1.000000000000000E+20
 35
-1.000000000000000E+20
146
0.0
 13
0.0
 23
0.0
 33
0.0
 16
1.0
 26
0.0
 36
0.0
 17
0.0
 27
1.0
 37
0.0
 76
     0
330
1F
331
29
  0
MATERIAL
  5
3D
102
{ACAD_REACTORS
330
3B
102
}
330
3B
100
AcDbMaterial
  1
ByBlock
 72
     1
 94
      127
  0
MATERIAL
  5
3C
102
{ACAD_REACTORS
330
3B
102
}
330
3B
100
AcDbMaterial
  1
ByLayer
 72
     1
 94
      127
  0
MATERIAL
  5
3E
102
{ACAD_REACTORS
330
3B
102
}
330
3B
100
AcDbMaterial
  1
Global
 72
     1
 94
      127
  0
MLINESTYLE
  5
18
102
{ACAD_REACTORS
330
17
102
}
330
17
100
AcDbMlineStyle
  2
Standard
 70
     0
  3

 62
   256
 51
90.0
 52
90.0
 71
     2
 49
0.5
 62
   256
  6
BYLAYER
 49
-0.5
 62
   256
  6
BYLAYER
  0
ACDBPLACEHOLDER
  5
F
102
{ACAD_REACTORS
330
E
102
}
330
E
  0
VISUALSTYLE
  5
2F
102
{ACAD_REACTORS
330
2A
102
}
330
2A
100
AcDbVisualStyle
  2
2dWireframe
 70
     4
177
     2
291
     0
 71
     0
176
     1
 72
     2
176
     1
 73
     0
176
     1
 90
        0
176
     1
 40
-0.6
176
     1
 41
-30.0
176
     1
 62
     5
 63
     7
421
 16777215
176
     1
 74
     1
176
     1
 91
        4
176
     1
 64
     7
176
     1
 65
   257
176
     1
 75
     1
176
     1
175
     1
176
     1
 42
1.0
176
     1
 92
        0
176
     1
 66
   257
176
     1
 43
1.0
176
     1
 76
     1
176
     1
 77
     6
176
     1
 78
     2
176
     1
 67
     7
176
     1
 79
     5
176
     1
170
     0
176
     1
171
     0
176
     1
290
     0
176
     1
 93
        1
176
     1
 44
0.0
176
     1
173
     0
176
     1
  0
VISUALSTYLE
  5
31
102
{ACAD_REACTORS
330
2A
102
}
330
2A
100
AcDbVisualStyle
  2
3D Hidden
 70
     6
177
     2
291
     0
 71
     1
176
     1
 72
     2
176
     1
 73
     2
176
     1
 90
        0
176
     1
 40
-0.6
176
     1
 41
-30.0
176
     1
 62
     5
 63
     7
421
 16777215
176
     1
 74
     2
176
     1
 91
        2
176
     1
 64
     7
176
     1
 65
   257
176
     1
 75
     2
176
     1
175
     1
176
     1
 42
40.0
176
     1
 92
        0
176
     1
 66
   257
176
     1
 43
1.0
176
     1
 76
     1
176
     1
 77
     6
176
     1
 78
     2
176
     1
 67
     7
176
     1
 79
     3
176
     1
170
     0
176
     1
171
     0
176
     1
290
     0
176
     1
 93
        1
176
     1
 44
0.0
176
     1
173
     0
176
     1
  0
VISUALSTYLE
  5
30
102
{ACAD_REACTORS
330
2A
102
}
330
2A
100
AcDbVisualStyle
  2
3dWireframe
 70
     5
177
     2
291
     0
 71
     0
176
     1
 72
     2
176
     1
 73
     0
176
     1
 90
        0
176
     1
 40
-0.6
176
     1
 41
-30.0
176
     1
 62
     5
 63
     7
421
 16777215
176
     1
 74
     1
176
     1
 91
        4
176
     1
 64
     7
176
     1
 65
   257
176
     1
 75
     1
176
     1
175
     1
176
     1
 42
1.0
176
     1
 92
        0
176
     1
 66
   257
176
     1
 43
1.0
176
     1
 76
     1
176
     1
 77
     6
176
     1
 78
     2
176
     1
 67
     7
176
     1
 79
     5
176
     1
170
     0
176
     1
171
     0
176
     1
290
     0
176
     1
 93
        1
176
     1
 44
0.0
176
     1
173
     0
176
     1
  0
VISUALSTYLE
  5
32
102
{ACAD_REACTORS
330
2A
102
}
330
2A
100
AcDbVisualStyle
  2
Basic
 70
     7
177
     2
291
     1
 71
     1
176
     1
 72
     0
176
     1
 73
     1
176
     1
 90
        0
176
     1
 40
-0.6
176
     1
 41
-30.0
176
     1
 62
     5
 63
     7
421
 16777215
176
     1
 74
     0
176
     1
 91
        4
176
     1
 64
     7
176
     1
 65
   257
176
     1
 75
     1
176
     1
175
     1
176
     1
 42
1.0
176
     1
 92
        8
176
     1
 66
     7
176
     1
 43
1.0
176
     1
 76
     1
176
     1
 77
     6
176
     1
 78
     2
176
     1
 67
     7
176
     1
 79
     5
176
     1
170
     0
176
     1
171
     0
176
     1
290
     0
176
     1
 93
        1
176
     1
 44
0.0
176
     1
173
     0
176
     1
  0
VISUALSTYLE
  5
36
102
{ACAD_REACTORS
330
2A
102
}
330
2A
100
AcDbVisualStyle
  2
Brighten
 70
    12
177
     2
291
     1
 71
     2
176
     1
 72
     2
176
     1
 73
     0
176
     1
 90
        0
176
     1
 40
-0.6
176
     1
 41
-30.0
176
     1
 62
     5
 63
     7
421
 16777215
176
     1
 74
     1
176
     1
 91
        4
176
     1
 64
     7
176
     1
 65
   257
176
     1
 75
     1
176
     1
175
     1
176
     1
 42
1.0
176
     1
 92
        8
176
     1
 66
     7
176
     1
 43
1.0
176
     1
 76
     1
176
     1
 77
     6
176
     1
 78
     2
176
     1
 67
     7
176
     1
 79
     5
176
     1
170
     0
176
     1
171
     0
176
     1
290
     0
176
     1
 93
        1
176
     1
 44
50.0
176
     1
173
     0
176
     1
  0
VISUALSTYLE
  5
3A
102
{ACAD_REACTORS
330
2A
102
}
330
2A
100
AcDbVisualStyle
  2
ColorChange
 70
    16
177
     2
291
     1
 71
     2
176
     1
 72
     2
176
     1
 73
     3
176
     1
 90
        0
176
     1
 40
-0.6
176
     1
 41
-30.0
176
     1
 62
     5
 63
     8
421
  8421504
176
     1
 74
     1
176
     1
 91
        4
176
     1
 64
     7
176
     1
 65
   257
176
     1
 75
     1
176
     1
175
     1
176
     1
 42
1.0
176
     1
 92
        8
176
     1
 66
     8
424
  8421504
176
     1
 43
1.0
176
     1
 76
     1
176
     1
 77
     6
176
     1
 78
     2
176
     1
 67
     7
176
     1
 79
     5
176
     1
170
     0
176
     1
171
     0
176
     1
290
     0
176
     1
 93
        1
176
     1
 44
0.0
176
     1
173
     0
176
     1
  0
VISUALSTYLE
  5
34
102
{ACAD_REACTORS
330
2A
102
}
330
2A
100
AcDbVisualStyle
  2
Conceptual
 70
     9
177
     2
291
     0
 71
     3
176
     1
 72
     2
176
     1
 73
     0
176
     1
 90
        0
176
     1
 40
-0.6
176
     1
 41
-30.0
176
     1
 62
     5
 63
     7
421
 16777215
176
     1
 74
     2
176
     1
 91
        2
176
     1
 64
     7
176
     1
 65
   257
176
     1
 75
     1
176
     1
175
     1
176
     1
 42
40.0
176
     1
 92
        8
176
     1
 66
     7
176
     1
 43
1.0
176
     1
 76
     1
176
     1
 77
     6
176
     1
 78
     2
176
     1
 67
     7
176
     1
 79
     3
176
     1
170
     0
176
     1
171
     0
176
     1
290
     0
176
     1
 93
        1
176
     1
 44
0.0
176
     1
173
     0
176
     1
  0
VISUALSTYLE
  5
35
102
{ACAD_REACTORS
330
2A
102
}
330
2A
100
AcDbVisualStyle
  2
Dim
 70
    11
177
     2
291
     1
 71
     2
176
     1
 72
     2
176
     1
 73
     0
176
     1
 90
        0
176
     1
 40
-0.6
176
     1
 41
-30.0
176
     1
 62
     5
 63
     7
421
 16777215
176
     1
 74
     1
176
     1
 91
        4
176
     1
 64
     7
176
     1
 65
   257
176
     1
 75
     1
176
     1
175
     1
176
     1
 42
1.0
176
     1
 92
        8
176
     1
 66
     7
176
     1
 43
1.0
176
     1
 76
     1
176
     1
 77
     6
176
     1
 78
     2
176
     1
 67
     7
176
     1
 79
     5
176
     1
170
     0
176
     1
171
     0
176
     1
290
     0
176
     1
 93
        1
176
     1
 44
-50.0
176
     1
173
     0
176
     1
  0
VISUALSTYLE
  5
39
102
{ACAD_REACTORS
330
2A
102
}
330
2A
100
AcDbVisualStyle
  2
Facepattern
 70
    15
177
     2
291
     1
 71
     2
176
     1
 72
     2
176
     1
 73
     0
176
     1
 90
        0
176
     1
 40
-0.6
176
     1
 41
-30.0
176
     1
 62
     5
 63
     7
421
 16777215
176
     1
 74
     1
176
     1
 91
        4
176
     1
 64
     7
176
     1
 65
   257
176
     1
 75
     1
176
     1
175
     1
176
     1
 42
1.0
176
     1
 92
        8
176
     1
 66
     7
176
     1
 43
1.0
176
     1
 76
     1
176
     1
 77
     6
176
     1
 78
     2
176
     1
 67
     7
176
     1
 79
     5
176
     1
170
     0
176
     1
171
     0
176
     1
290
     0
176
     1
 93
        1
176
     1
 44
0.0
176
     1
173
     0
176
     1
  0
VISUALSTYLE
  5
2B
102
{ACAD_REACTORS
330
2A
102
}
330
2A
100
AcDbVisualStyle
  2
Flat
 70
     0
177
     2
291
     1
 71
     2
176
     1
 72
     1
176
     1
 73
     1
176
     1
 90
        2
176
     1
 40
-0.6
176
     1
 41
30.0
176
     1
 62
     5
 63
     7
421
 16777215
176
     1
 74
     0
176
     1
 91
        4
176
     1
 64
     7
176
     1
 65
   257
176
     1
 75
     1
176
     1
175
     1
176
     1
 42
1.0
176
     1
 92
        8
176
     1
 66
     7
176
     1
 43
1.0
176
     1
 76
     1
176
     1
 77
     6
176
     1
 78
     2
176
     1
 67
     7
176
     1
 79
     5
176
     1
170
     0
176
     1
171
     0
176
     1
290
     0
176
     1
 93
       13
176
     1
 44
0.0
176
     1
173
     0
176
     1
  0
VISUALSTYLE
  5
2C
102
{ACAD_REACTORS
330
2A
102
}
330
2A
100
AcDbVisualStyle
  2
FlatWithEdges
 70
     1
177
     2
291
     1
 71
     2
176
     1
 72
     1
176
     1
 73
     1
176
     1
 90
        2
176
     1
 40
-0.6
176
     1
 41
30.0
176
     1
 62
     5
 63
     7
421
 16777215
176
     1
 74
     1
176
     1
 91
        4
176
     1
 64
     7
176
     1
 65
   257
176
     1
 75
     1
176
     1
175
     1
176
     1
 42
1.0
176
     1
 92
        0
176
     1
 66
   257
176
     1
 43
1.0
176
     1
 76
     1
176
     1
 77
     6
176
     1
 78
     2
176
     1
 67
     7
176
     1
 79
     5
176
     1
170
     0
176
     1
171
     0
176
     1
290
     0
176
     1
 93
       13
176
     1
 44
0.0
176
     1
173
     0
176
     1
  0
VISUALSTYLE
  5
2D
102
{ACAD_REACTORS
330
2A
102
}
330
2A
100
AcDbVisualStyle
  2
Gouraud
 70
     2
177
     2
291
     1
 71
     2
176
     1
 72
     2
176
     1
 73
     1
176
     1
 90
        2
176
     1
 40
-0.6
176
     1
 41
30.0
176
     1
 62
     5
 63
     7
421
 16777215
176
     1
 74
     0
176
     1
 91
        4
176
     1
 64
     7
176
     1
 65
   257
176
     1
 75
     1
176
     1
175
     1
176
     1
 42
1.0
176
     1
 92
        0
176
     1
 66
     7
176
     1
 43
1.0
176
     1
 76
     1
176
     1
 77
     6
176
     1
 78
     2
176
     1
 67
     7
176
     1
 79
     5
176
     1
170
     0
176
     1
171
     0
176
     1
290
     0
176
     1
 93
       13
176
     1
 44
0.0
176
     1
173
     0
176
     1
  0
VISUALSTYLE
  5
2E
102
{ACAD_REACTORS
330
2A
102
}
330
2A
100
AcDbVisualStyle
  2
GouraudWithEdges
 70
     3
177
     2
291
     1
 71
     2
176
     1
 72
     2
176
     1
 73
     1
176
     1
 90
        2
176
     1
 40
-0.6
176
     1
 41
30.0
176
     1
 62
     5
 63
     7
421
 16777215
176
     1
 74
     1
176
     1
 91
        4
176
     1
 64
     7
176
     1
 65
   257
176
     1
 75
     1
176
     1
175
     1
176
     1
 42
1.0
176
     1
 92
        0
176
     1
 66
   257
176
     1
 43
1.0
176
     1
 76
     1
176
     1
 77
     6
176
     1
 78
     2
176
     1
 67
     7
176
     1
 79
     5
176
     1
170
     0
176
     1
171
     0
176
     1
290
     0
176
     1
 93
       13
176
     1
 44
0.0
176
     1
173
     0
176
     1
  0
VISUALSTYLE
  5
38
102
{ACAD_REACTORS
330
2A
102
}
330
2A
100
AcDbVisualStyle
  2
Linepattern
 70
    14
177
     2
291
     1
 71
     2
176
     1
 72
     2
176
     1
 73
     0
176
     1
 90
        0
176
     1
 40
-0.6
176
     1
 41
-30.0
176
     1
 62
     5
 63
     7
421
 16777215
176
     1
 74
     1
176
     1
 91
        4
176
     1
 64
     7
176
     1
 65
   257
176
     1
 75
     7
176
     1
175
     7
176
     1
 42
1.0
176
     1
 92
        8
176
     1
 66
     7
176
     1
 43
1.0
176
     1
 76
     1
176
     1
 77
     6
176
     1
 78
     2
176
     1
 67
     7
176
     1
 79
     5
176
     1
170
     0
176
     1
171
     0
176
     1
290
     0
176
     1
 93
        1
176
     1
 44
0.0
176
     1
173
     0
176
     1
  0
VISUALSTYLE
  5
33
102
{ACAD_REACTORS
330
2A
102
}
330
2A
100
AcDbVisualStyle
  2
Realistic
 70
     8
177
     2
291
     0
 71
     2
176
     1
 72
     2
176
     1
 73
     0
176
     1
 90
        0
176
     1
 40
-0.6
176
     1
 41
-30.0
176
     1
 62
     5
 63
     7
421
 16777215
176
     1
 74
     1
176
     1
 91
        0
176
     1
 64
     7
176
     1
 65
   257
176
     1
 75
     1
176
     1
175
     1
176
     1
 42
1.0
176
     1
 92
        8
176
     1
 66
     8
424
  7895160
176
     1
 43
1.0
176
     1
 76
     1
176
     1
 77
     6
176
     1
 78
     2
176
     1
 67
     7
176
     1
 79
     5
176
     1
170
     0
176
     1
171
     0
176
     1
290
     0
176
     1
 93
       13
176
     1
 44
0.0
176
     1
173
     0
176
     1
  0
VISUALSTYLE
  5
37
102
{ACAD_REACTORS
330
2A
102
}
330
2A
100
AcDbVisualStyle
  2
Thicken
 70
    13
177
     2
291
     1
 71
     2
176
     1
 72
     2
176
     1
 73
     0
176
     1
 90
        0
176
     1
 40
-0.6
176
     1
 41
-30.0
176
     1
 62
     5
 63
     7
421
 16777215
176
     1
 74
     1
176
     1
 91
        4
176
     1
 64
     7
176
     1
 65
   257
176
     1
 75
     1
176
     1
175
     1
176
     1
 42
1.0
176
     1
 92
       12
176
     1
 66
     7
176
     1
 43
1.0
176
     1
 76
     1
176
     1
 77
     6
176
     1
 78
     2
176
     1
 67
     7
176
     1
 79
     5
176
     1
170
     0
176
     1
171
     0
176
     1
290
     0
176
     1
 93
        1
176
     1
 44
0.0
176
     1
173
     0
176
     1
  0
ENDSEC
  0
EOF
